Butthole Surfers
			  THE COLORED FBI GUY
                               (AKA 1401)

Bass tab by Chris Lawrence

Verse:

G---7------------------------------------------------
D--------7----6----5-----3-----0---------------2--3--
A-----------------------------------0-----3----------
E----------------------------------------------------

Right before the chorus:

G---7------------------------------------------------
D--------7----6----5-----3-----0---------------------
A-----------------------------------0-----3----------
E----------------------------------------------3---1-

Chorus:

G-------------------------------------------------
D----------3-------------o-----3-----------------o REPEAT THE PART IN o  o
A---5--------------5-----o--3---------3--3---5---o                    o  o
E-------------------------------------------------

At the end of the chorus, he goes:

G-----------
D--3^0^3-0-- Then to the verse
A-----------
E-----------

This should be pretty accurate. If not, don't whine to me.

Chris Lawrence ([email protected])





Текст, аккорды и табулатура для песни "The Colored Fbi Guy", исполняет "Butthole Surfers".
Используемые в песне аккорды можно найти в разделе Как брать аккорды. Аккорды для шестиструнной гитары. Другие песни можно найти на нашем сайте, воспользовавшись алфавитным указателем вверху страницы.


 
Ошибка в тексте? Выделите ошибку и нажмите Ctrl+Enter