В снах своих видел -
Обвенчан с луной,
Смерть ногою поправ,
Спя на лугах.
Слушая дождь,
В ложе нескошенных трав...

Вступление:
D|--------3--4--------3--4--4--2--------------| - партия клавишных
A|--2--5--------2--5--------------5s7s2-------|   на гитаре  
 если по аккордам, то это Hm-Am-Hm перебором  

Dm-C-Dm - боем

Соло-гитара во время боя:
E|-------5--7--------5--7--7-5--7-3--2s5-| - 2 раза
H|-5--7--------5--7----------------------|

перед началом куплета играется:
    Em            G F# Em             G F# 
D|--2--2--2--2-2-2-----2--2--2--2-2-2-----2-|
A|--2--2--2--2-2-2-----2--2--2--2-2-2-----2-|
E|--0--0--0--0-0-0-3-2-0--0--0--0-0-0-3-2-0-|

Em                   Am
Десять тысяч лет прошло
               Em   Em-G-f#
Но нас не изменить!
Em                   Am
Голос крови, блеск луны
               Em   Em-G-F#  
Не сможем мы забыть.
Em              Am
Нас хранили облака,
             Em  Em-G-F#
Поили русла рек.
Em              Am
Мы пришли издалека,
                 Em  Em-G-F#
Остаться здесь навек.

Am                 G              D
Мы два крыла поднебесной черной птицы,
Am                           G       D
Что летит над землей со стрелою в груди.
Am               G              D     
Мы два крыла умирающей черной птицы,
Am                G                   D
Что летит над землей со стрелою в груди!

после припева играется:
A|----7--5h7p5----------5-----------------|
E|-5----------h8--8-7-8---8--7-8-5--------|

Am
С нами наш Огонь,
С нами Кровь Земли.
С нами Ветер наш,
С нами Солнце.

A|----7--5h7p5----------5-----------------|
E|-5----------h8--8-7-8---8--7-8-5--------|

Am
С нами Ветер наш,
С нами Солнца свет.

Проигрыш - импровизация в Am, затем снова:
    Em            G F# Em             G F#
D|--2--2--2--2-2-2-----2--2--2--2-2-2-----2-|
A|--2--2--2--2-2-2-----2--2--2--2-2-2-----2-|
E|--0--0--0--0-0-0-3-2-0--0--0--0-0-0-3-2-0-|

Где бы не был я, где бы не был ты:
У далеких гор, у седьмой воды.
С нами ветер наш,
С нами блеск луны.
С нами наш огонь,
С нами кровь земли!

Мы два крыла поднебесной черной птицы,
Что летит над землей со стрелою в груди.
Мы два крыла умирающей черной птицы,
Что летит над землей со стрелою в груди!

после второго припева - соло. Соло - импровизация. Аккорды во время соло такие:
E5-D5-C5-E5-E5-D5-C5
A5-E5-D5 - 4 раза

A|----7--5h7p5----------5-----------------|
E|-5----------h8--8-7-8---8--7-8-5--------|

Еще одна импровизация в Am

Мы два крыла поднебесной черной птицы,
Что летит над землей со стрелою в груди.
Мы два крыла умирающей черной птицы,
Что летит над землей со стрелою в груди!


Текст, аккорды и табулатура для песни "Мы Два Крыла", исполняет "Butterfly Temple".
Используемые в песне аккорды можно найти в разделе Как брать аккорды. Аккорды для шестиструнной гитары. Другие песни можно найти на нашем сайте, воспользовавшись алфавитным указателем вверху страницы.


Слушать онлайн Мы два крыла


Butterfly TempleМы два крыла на Яндекс.Музыке


 
Ошибка в тексте? Выделите ошибку и нажмите Ctrl+Enter