*-флажолет

                                                                       
E||--12*---------------|--10----------------|--8-----10----8---------
B||--12*---------------|--12----------------|--10---------------10---
G||--12*---------------|--11----------------|--9---------------------
D||--------------------|--------------------|------------------------
A||--------------------|--------------------|------------------------
E||--------------------|--------------------|------------------------


                                                                  
--7----------------|--5----7----5---------|--5---------3---------|
--8----------------|--6--------------6----|--5---------4---------|
--9----------------|--7-------------------|--5----5----5----5----|
-------------------|----------------------|----------------------|
-------------------|----------------------|----------------------|
-------------------|----------------------|----------------------|


                                                                   
--2---------2---------|--0---------0---------|--12*---------------|
--3--------------3----|--0--------------0----|--12*---------------|
--4----4--------------|-------0--------------|--12*---------------|
----------------------|----------------------|--------------------|
----------------------|----------------------|--------------------|
----------------------|----------------------|--------------------|


                                                                   
--10----------------|--8-----10----8----------|--7----------------|
--12----------------|--10---------------10----|--8----------------|
--11----------------|--9----------------------|--9----------------|
--------------------|-------------------------|-------------------|
--------------------|-------------------------|-------------------|
--------------------|-------------------------|-------------------|


                                                                     
--5----7----5---------|--5---------3---------|--2---------2---------|
--6--------------6----|--5---------4---------|--3--------------3----|
--7-------------------|--5----5----5----5----|--4----4--------------|
----------------------|----------------------|----------------------|
----------------------|----------------------|----------------------|
----------------------|----------------------|----------------------|


                             
-----------0-----------|---||
---------0-------------|---||
-------0---------------|---||
-----2-----------------|---||
--2--------------------|---||
-----------------------|---||


Искал твои слезы в апрельском дожде,
В огне увидел глаза.
Северный ветер принес шелест губ,
Лик приоткрыла гроза.
Нити-дороги, следы в колее
Тайный шепот реки,
Руны ветвей, камни на дне,
След на песке от руки...
В сполохах ночью услышал твой смех,
Шепнул имя туман.
За руку взяв, повел по воде,
Тебя в берегине узнав...


Текст, аккорды и табулатура для песни "Берегиня", исполняет "Butterfly Temple".
Используемые в песне аккорды можно найти в разделе Как брать аккорды. Аккорды для шестиструнной гитары. Другие песни можно найти на нашем сайте, воспользовавшись алфавитным указателем вверху страницы.


Слушать онлайн Берегиня


Butterfly TempleБерегиня на Яндекс.Музыке


 
Ошибка в тексте? Выделите ошибку и нажмите Ctrl+Enter