Dropped D

Intro Bass 4x
E--------------------------------------------------|
B--------------------------------------------------|
G--------------------------------------------------|
D--------------------------------------------------|
A--------------------------------------------------|
D--0-7-8-7-0-7-10-8-7-3----------------------------|

Guitar 4x
E--------------------------------------------------|
B--------------------------------------------------|
G--------------------------------------------------|
D--------------------------------------------------|
A--3--2--0-0-0-0----2/---3-3-3-3------------------|
D--3--2--0-0-0-0----2/---3-3-3-3------------------|

Verse 8x
               I'm tired......
E--------------------------------------------------|
B--------------------------------------------------|
G--------------------------------------------------|
D--------------------------------------------------|
A--3--2--0-0-0-0----2/---3-3-3-3------------------|
D--3--2--0-0-0-0----2/---3-3-3-3------------------|

Chorus

E--------------------------------------------------|
B--------------------------------------------------|
G--------------------------------------------------|
D-3-------7---5--------3-------7---5---------------|
A-1---3---5---3--------1---3---5---3---------------|
D-----3--------------------3-----------------------|

I won't belong.......

E--------------------------------------------------|
B--------------------------------------------------|
G--------------------------------------------------|
D-3------------------------------------------------|
A-1---------3--2--3--------------------------------|
D-----------3--2--3--------------------------------|

Part 1: 4x
E--------------------------------------------------|
B--------------------------------------------------|
G--------------------------------------------------|
D--------------------------------------------------|
A--3--2--0-0-0-0----2/---3-3-3-3------------------|
D--3--2--0-0-0-0----2/---3-3-3-3------------------|

Verse 2: 4x
              Expired......
E--------------------------------------------------|
B--------------------------------------------------|
G--------------------------------------------------|
D--------------------------------------------------|
A--3--2--0-0-0-0----2/---3-3-3-3------------------|
D--3--2--0-0-0-0----2/---3-3-3-3------------------|

Repeat chorus and part 1 then solo

Rhythm part for solo (Plays as chorus 3x)

E--------------------------------------------------|
B--------------------------------------------------|
G--------------------------------------------------|
D-3-------7---5--------3-------7---5---------------|
A-1---3---5---3--------1---3---5---3---------------|
D-----3--------------------3-----------------------|

E--------------------------------------------------|
B--------------------------------------------------|
G--------------------------------------------------|
D-3-------7---5----------3-------------------------|
A-1---3---5---3----------1----3--2--3--------------|
D-----3-----------------------3--2--3--------------|

Guitar 2x
E--------------------------------------------------|
B--------------------------------------------------|
G--------------------------------------------------|
D--------------------------------------------------|
A--------------------------------------------------|
D--0-7-8-7-0-7-10-8-7-3----------------------------|

4x   I'm falling......
E--------------------------------------------------|
B--------------------------------------------------|
G--------------------------------------------------|
D--------------------------------------------------|
A--------------------------------------------------|
D--0-7-8-7-0-7-10-8-7-3----------------------------|

Then repeat chorus again

Rhythm for 2nd solo

E--------------------------------------------------|
B--------------------------------------------------|
G--------------------------------------------------|
D-7---5----------3---------------------------------|
A-5---3----------1---3--2--3-----------------------|
D--------------------3--2--3-----------------------|

E--------------------------------------------------|
B--------------------------------------------------|
G--------------------------------------------------|
D-7---5----------3---------------------------------|
A-5---3----------1---3--2--3-----------------------|
D--------------------3--2--3-----------------------|

E--------------------------------------------------|
B--------------------------------------------------|
G--------------------------------------------------|
D-7---5----------3---------------------------------|
A-5---3----------1---3--2--3-----------------------|
D--------------------3--2--3-----------------------|

E--------------------------------------------------|
B--------------------------------------------------|
G--------------------------------------------------|
D-7---5----------3---------------------------------|
A-5---3----------1---3--2--3--0--------------------|
D--------------------3--2--3--0--------------------|


Текст, аккорды и табулатура для песни "Sober", исполняет "Butterfingers".
Используемые в песне аккорды можно найти в разделе Как брать аккорды. Аккорды для шестиструнной гитары. Другие песни можно найти на нашем сайте, воспользовавшись алфавитным указателем вверху страницы.


 
Ошибка в тексте? Выделите ошибку и нажмите Ctrl+Enter