Intro (F C Am G)

Guitar 1
E--------3---1---0--------------3---1---0----------
B------1---0---0------------------0---0------------
G----2------------------------0--------------------
D--3------------------------2----------------------
A-------------------------3------------------------
E--------------------------------------------------

E---------3---1---0--------------3---1---0---------
B-----------0---0------------------0---0-----------
G------2-------------------------------------------
D----2------------------------0--------------------
A--0------------------------2----------------------
E-------------------------3------------------------

Guitar 2 plays F C A G (power chord)

Bass 2X
E--------------------------------------------------
B--------------------------------------------------
G--------------------------------------------------
D--------------------------------------------------
A--------------3-3-3-3-3-5-------------------------
E--1-1-1-1-1-0-------------5-5-5-5--3-3-3-31------

Verse(Repeat Bass with a whole bunch of effects from guitar)

Why don't you ask me ( Again, F C A G)

Outro

E--------3---1---0-----------------0---------------
B------1---0---0---------------------1----1--------
G----2------------------------0---------0----------
D--3------------------------2----------------------
A-------------------------3------------------------
E--------------------------------------------------


Текст, аккорды и табулатура для песни "Me", исполняет "Butterfingers".
Используемые в песне аккорды можно найти в разделе Как брать аккорды. Аккорды для шестиструнной гитары. Другие песни можно найти на нашем сайте, воспользовавшись алфавитным указателем вверху страницы.


 
Ошибка в тексте? Выделите ошибку и нажмите Ctrl+Enter