Artist-Busted
Song-What I GO to School for
Tuning-Standard	
Tabbed By-Skott	

Intro:
e|-------------------------------------------------------------------
B|-------------------------------------------------------------------
G|-2-2-2-2-2-2-2-2--4-4-4-4--7-7-7-7---------------------------------
D|-2-2-2-2-2-2-2-2--4-4-4-4--7-7-7-7—--------------------------------
A|-0-0-0-0-0-0-0-0--2-2-2-2--5-5-5-5---------------------------------
E|-------------------------------------------------------------------

Verse: 
e|-------------------------------------------------------------------
B|-------------------------------------------------------------------
G|-2-2-2-2-2-2-2-2------------------------------------7-7-7-7-7-7-7-7
D|-2-2-2-2-2-2-2-2--2-2-2-2-2-2-2-2--4-4-4-4-4-4-4-4--7-7-7-7-7-7-7-7
A|-0-0-0-0-0-0-0-0--2-2-2-2-2-2-2-2--4-4-4-4-4-4-4-4--5-5-5-5-5-5-5-5
E|------------------0-0-0-0-0-0-0-0--2-2-2-2-2-2-2-2-----------------


Chorus:
e|-------------------------------------------------------------------
B|-------------------------------------------------------------------
G|-2-2-2-2-2-2-2-2—-7-7-7-7-7-7-7-7----------------------------------
D|-2-2-2-2-2-2-2-2—-7-7-7-7-7-7-7-7-4-4-4-4-4-4-4-4--2-2-2-2-2-2-2-2-
A|-0-0-0-0-0-0-0-0—-5-5-5-5-5-5-5-5-4-4-4-4-4-4-4-4--2-2-2-2-2-2-2-2-
E|----------------------------------2-2-2-2-2-2-2-2--0-0-0-0-0-0-0-0-

Bridge:
e|--5-0-4h5----------------------------------------------------------
B|-------------------------------------------------------------------
G|-------------------------------------------------------------------
D|-------------------------------------------------------------------
A|-------------------------------------------------------------------
E|-------------------------------------------------------------------
Just repeat that im not too sure bout this bit.
Ne probs email me at [email protected]


Текст, аккорды и табулатура для песни "What I Go To School For", исполняет "Busted".
Используемые в песне аккорды можно найти в разделе Как брать аккорды. Аккорды для шестиструнной гитары. Другие песни можно найти на нашем сайте, воспользовавшись алфавитным указателем вверху страницы.


Слушать онлайн What I Go To School For


BustedWhat I Go To School For на Яндекс.Музыке


 
Ошибка в тексте? Выделите ошибку и нажмите Ctrl+Enter