Title: Warm Machine
Artist: Bush
Album: The science of things

Instrument: Guitar

Tabbed by: WW 

Tuning: Standard (E A D G B E)

The first song of a great album

CHORDS
E|-3-----0-------8-----5------5----1---3---1------x----------||
B|-3-----0-------8-----5------5----1---3---1------x----------||
G|-5-----2-------10----7------6----2---4---2------x----------||
D|-5-----2-------10----7------7----3---5---3------7----------||
A|-3-----0-------8-----5------7----3---5---3------7--------- ||
E|-3-----0-------8-----5------5----1---3---0------5----------||
  Csus2  Asus2  Fsus2  Dsus2  A    F   G   F/E    A5 


INTRO
E|-0----0--------0-----0------0--------0-----0--------------------
B|-6--6---6---5-----5----5/10---10--10----10/8--8----8--8--8--8---
G|-------------------------------------------------0----0--0--0---
D|----------------------------------------------------------------
A|----------------------------------------------------------------
E-----------------------------------------------------------------


VERSE1            Csus2    Asus2  Fsus2 Dsus2              Csus2 
E|----------------|0-----0---------|----------------|-----------||
B|----------------|6--6----6--5----|----------------|-----------||
G|----------------|----------------|----------------|-----intro-||
D|----------------|----------------|----------------|-----------||
A|----------------|----------------|----------------|-----------||
E|----------------|----------------|----------------|-----------||
  I memorize the   basics                Making strange faces etc. 
 
CHORUS1         A                  F   G                     A
E|--------------5--|---------------1-|-3----------|--------5---||
B|--------------5--|---------------1-|-3----------|--------5---||
G|--------------6--|---------------2-|-4----------|--------6---||
D|--------------7--|---------------3-|-5----------|--------7---||
A|--------------7--|---------------3-|-5----------|--------7---||
E|--------------5--|---------------1-|-3----------|--------5---||
  This is the night, this is the sound here comes the warm machine  
  
    F   G    F  F/E     F  F/E             A   F   G
E|--1---3----1--1-----|-1--1------------|--5---1---3----------||
B|--1---3----1--1-----|-1--1------------|--5---1---3----------||
G|--2---4----2--2-----|-2--2------------|--6---2---4----------||
D|--3---5----3--3-----|-3--3------------|--7---3---5----------||
A|--3---5----3--3-----|-3--3------------|--7---3---5----------||
E|--1---3----1 0-----|-1--0------------|--5---1---3----------||
             such a     warm machine               Feeling warm

Then you have to play the intro again

Then verse2 (play as verse1).
Lyrics:
Some days are playful, making play faces
But we will not let it trough, the darkness and the sense
of being born to lose



Then Chorus1 and Chorus2
Chorus2 (play as chorus1)lyrics:
This is the life, this is the ground,
here comes the warm machine, such a warm machine
 
BRIDGE1
E|-x----------------|-----x------x----|---------------------||
B|-x----------------|-----x------x----|---------------------||
G|-x----------------|-----x------x----|---------------------||
D|-14---------------|-----12-----10---|---------------------||
A|-x----------------|-----x------x----|---------------------||
E|-12---------------|-----10-----8----|---------------------||
  If we never know we can only  feel. I'll take the help, 
  I'll take a slice.

Then Bridge2 (same as bridge1)
Lyrics:
Warm alright now 'cause I feel alright


SOLO    
E|----------------|-----------------------------------------||
B|-17--17--17--17-1715-15-15-15-0/17--17--17/20------------||
G|----------------|-----------------------------------------||
D|----------------|-----------------------------------------||
A|----------------|-----------------------------------------||
E|----------------|-----------------------------------------||

E|----------------|-------------/17|----------------|-------||
B|-/17--17--1715--15-15--15--0----|----------------|-------||
G|----------------|----------------|----------------|-------||
D|----------------|----------------|----------------|-------||
A|----------------|----------------|----------------|-------||
E|----------------|----------------|----------------|-------||

Then Chorus again.

OUTRO                                                 harm. 
E|-----x-x-----x-x-|--------------------|--------------------||
B|-----x-x-----x-x-|--------------------|-13-----------------||
G|-----------------|-14--x--14--x--x----|-14------14---16----||
D|-7-------7-7-----|-12--x--12--x--x----|-14---0--14---------||
A|-7-------5-5-----|-12-----12----------|--------------------||
E|-5-------5-5-----|--------------------|--------------------||
                        harm.  
E|-12--------12------|---5-------------|----------------|----||
B|-13--------13------|---5-------------|----------------|----||
G|-14--------14------|---5-------------|----------------|----||
D|-14----0---14------|-----------------|----------------|----||
A|-------------------|-----------------|----------------|----||
E|-------------------|-----------------|----------------|----||


Текст, аккорды и табулатура для песни "Warm Machine", исполняет "Bush".
Используемые в песне аккорды можно найти в разделе Как брать аккорды. Аккорды для шестиструнной гитары. Другие песни можно найти на нашем сайте, воспользовавшись алфавитным указателем вверху страницы.


 
Ошибка в тексте? Выделите ошибку и нажмите Ctrl+Enter