Author/Artist: Bush
Title: synapse
Transcribed by: Saverain
Email: [email protected]

This is what it sounds like to me and if you don't like it E-mail me
you'll have to find the lyrics somewhere else sorry.  I are not to good words
Two guitars arranged for 1

v strum down
^ strum up

-|---------------------------|----|-------------------------------------------
-|---------------------------|----|-------------------------------------------
-|-----2---------------------|----|-----2---4-2--------------------8-8-5-8-8--
-|-3-3-3-3-3-3--7-7-7--7-7-7-|-2x-|-3-3---3-----3-2--7-7-7--7-7-7-------------
-|-3-3-3-3-3-3--7-7-7--7-7-7-|----|-3----------------7-7-7--7-7-7-------------
-|-1-1-1-1-1-1--5-5----5-5-5-|----|-1----------------5-5-5--5-5-5-------------
 intro v v v v  v v v  v v v    verse>                                        

------------|------------------|----------------------------------------------
------------|------------------|----------------------------------------------
-8-10-------|------------------|-----------2---4-2----------------------------
---10-------|-3-3-3-3-3-3--7---|-------3-3---3-----3-2-----------3-3-3-3-3-3--
------------|-3-3-3-3-3-3--7---|-------3-------------------------3-3-3-3-3-3--
------------|-1-1-1-1-1-1--5-5-|-------1---------------5-5-------1-1-1-1-1-1--
       main part of verse^                                                    

----------------------------------------------------------------------------|-
----------------------------------------------------------------------------|-
------------------2---4-2--------5--4--5--8----8-8--8----8-10---------------|-
--3-----------3-3---3-----3-2--2------------10---10---10-------7-7-7--7-7-7-|-
--7-7---------3------------------------------------------------7-7-7--7-7-7-|-
--5-5---------1------------------------------------------------5-5-5--5-5-5-|-
                                                                              

-|---------------------------|----|--------------------------------|----------
-|---------------------------|----|-5------------------------------|----------
-|---------------------------|----|-5------------------------------|-2--2--2--
-|-3-3-3-3-3-3--7-7-7--7-7-7-|-3x-|---3-2--------7------------7----|-3--3--3--
-|-3-3-3-3-3-3--7-7-7--7-7-7-|----|---3-3-3-0-0--7--7-7-7-7-7-7-3--|-3--3--3--
-|-1-1-1-1-1-1--5-5-5--5-5-5-|----|---1-1--------5--5-5-5-5-5------|-1--1--1--
                                                         chorus>     v  v  v  

----------------------------|-----------------------------------------|-------
------------2--2-2----2-----|-----------------------------------------|-------
--2--2/42--2--2-2--2-2-2---|-----------------------------------------|-1-1---
--3------0--2--2-2--2---2-2-|-10-10-10-10-10-10-10-10-7-7-7-7-7-7-7-7-|-2---2-
--3---------0----0--0-------|-10-10-10-10-10-10-10-10-7-7-7-7-7-7-7-7-|-2-----
--1-------------------------|-8--8--8--8--8--8--8--8--5-5-5-5-5-5-5-5-|-0-----
  v  v   ^  v  ^ v  v ^ v ^   interlude                                       

--------|---------------------|--------------------|------------|--------|----
-----1--|---------------------|--------------------|------------|--------|----
---2----|---------------------|--------------------|------------|--------|----
-2------|---------------------|--------------------|------------|--------|----
--------|---------------------|--------------------|------------|--------|----
--------|---------------------|--------------------|------------|--------|----
 harmonics<      intro           main part of verse   intro        chorus     

-|--------|-------|----------|-----------|---|-------|------------------------
-|--------|-------|----------|------5----|---|-------|------------------------
-|--------|-1-----|----------|-2----6----|---|-2-----|------------------------
-|--------|-2-32x-|----------|-3----7----|---|-3-----|------------------------
-|--------|-2-----|----------|-3-8x-7-8x-|2x-|-3-32x-|------------------------
-|--------|-0-----|----------|-1----5----|---|-1-----|------------------------
  interlude         chorus    outro
===========

BAND: Bush
SONG: Synapse
CD: Razorblade Suitcase

Intro:

Rhythm 1:

---------------------------|
---------------------------|
-2-2-2-2-2-2--6-6-6--6-6-6-|
-3-3-3-3-3-3--7-7-7--7-7-7-|
-3-3-3-3-3-3--7-7-7--7-7-7-|
-1-1-1-1-1-1--5-5-5--5-5-5-|
--------play 4 times--------

Lead plays these riffs:

After Rhythm 1 is played twice:

Riff 1:

---------------------|
---------------------|
-2-2-2-2-2/4-42-----|
-----------------3-2-|
---------------------|
---------------------|

After Rhythm 1 is played 3 times: 

Riff 2:

---------------|
-4-4---4---4-6-|
-----5---5-----|
---------------|
---------------|
---------------|

Verse:

One Guitar plays Rhythm 1 until chorus
Another plays these riffs:

Riff 1 twice
Riff 2 once (not exactly that riff, just based around it)

Chorus:

Play these 2 together a few times:

Rhythm Guitar:

------------------------------|
------------------------------|
-2-2-2-2-2-2--6--6-6-6--6-6-6-|
-3-3-3-3-3-3--7--7-7-7--7-7-7-|
-3-3-3-3-3-3--7--7-7-7--7-7-7-|
-1-1-1-1-1-1--5--5-5-5--5-5-5-|

Lead:

----------------------------------|
----------------------------------|
-2-2-2-2-2/4-42------------------|
------------------6--6-6-6--6-6-6-|
------------------7--7-7-7--7-7-7-|
------------------7--7-7-7--7-7-7-|
------------------5--5-5-5--5-5-5-|

Bridge:

---------------------------------|
---------------------------------|
-5-5-5-5-5-5-5-5-2-2-2-2-2-2-2-2-|
-5-5-5-5-5-5-5-5-2-2-2-2-2-2-2-2-|
-3-3-3-3-3-3-3-3-0-0-0-0-0-0-0-0-|
---------------------------------|
----------play 3 times-----------

1st time:

All guitars back to Intro. Lead plays different riffs. Theyre just bends 
and some wierd noises Nigel can make w/ his amp and guitar.

2nd time:

Play Chorus again. The lead plays the same riffs in the begging of this.
After a while, play this instead:

-----------------------|
----------------------|
-2-2-2-2-2/4-42--/---|(change sliding directions often)
-----------------------|
-----------------------|
-----------------------|

This may be hard to understand the order of all this so here it is:

Intro
1st Verse
Chorus
Birdge
Intro
1st Verse
Chorus
Birdge
Chorus
End


Текст, аккорды и табулатура для песни "Synapse", исполняет "Bush".
Используемые в песне аккорды можно найти в разделе Как брать аккорды. Аккорды для шестиструнной гитары. Другие песни можно найти на нашем сайте, воспользовавшись алфавитным указателем вверху страницы.


 
Ошибка в тексте? Выделите ошибку и нажмите Ctrl+Enter