Band:      Bush
Song:      Machinehead
Tabbed By: drifft
email:     [email protected]
This is a corrected tab.


Intro:
G:|----|----|------------------------|
D:|----|----|------------------------|
A:|----|-4--|-4-0--0-00--0-0--0-00-|
E:|----|----|------------------------|

Main Riff:
G:|--------------------------------------------|
D:|--------------------------------------------|
A:|-4-4--4-44--4-4--4-44--0-0--0-00--0-0--0-00-|
E:|--------------------------------------------|

Chorus Variation 1:
G:|------------|
D:|------------|
A:|-/7--2-4--0-|
E:|------------|

Chorus Variation 1 End:
G:|------------|------------------|
D:|------------|------------------|
A:|-/7--2-4----|------------------|
E:|------------|-2-2--5--52-2--5-|

Chorus Variation 2:
G:|-----------------------|
D:|-----------------------|
A:|-/7-7--2-22--4-4--0-00-|
E:|-----------------------|

Chorus Variation 2 End:
G:|-----------------|------------------|
D:|-----------------|------------------|
A:|-/7-7--2-22--4---|------------------|
E:|-----------------|-2-2--5--52-2--5-|

Interlude:
G:|--------------------------------------------|
D:|--------------------------------------------|
A:|-----------------------0-0--0-00--0-0--0-00-|
E:|-1-1--1-11--1-1--1-11-----------------------|

Outro:
G:|------------------|
D:|------------------|
A:|-/7-7--2-22--4--4-| let last note ring
E:|------------------|

Song Breakdown:
Intro:                  1x
Main Riff:              8x
Chorus Variation 1:     3x
Chorus Variation 1 End: 1x
Main Riff:              4x
Chorus Variation 2:     3x
Chorus Variation 2 End: 1x
Interlude:              2x
Main Riff:              1x
Chorus Variation 2:     7x
Outro:                  1x

Listen to the song for the timing and have fun!
Any questions or comments please email me at [email protected]!


Текст, аккорды и табулатура для песни "Machinehead", исполняет "Bush".
Используемые в песне аккорды можно найти в разделе Как брать аккорды. Аккорды для шестиструнной гитары. Другие песни можно найти на нашем сайте, воспользовавшись алфавитным указателем вверху страницы.


 
Ошибка в тексте? Выделите ошибку и нажмите Ctrl+Enter