BAND    :   BUSH
ALBUM   :   THE SCIENCE OF THINGS
SONG    :   LETTING THE CABLES SLEEP
TABBED  :   GABRIEL ROMERO >[email protected]<


                                                          THIS TWO NOTES IN PARENTHESIS
                                                          I DON'T KNOW IF ARE PLAYED BY
                                                          GUITAR OR ARE  ECHOS  OF  THE
 INTRO:                                                   EFFECT. 
     G                     A                     B                                      G  
e--------------------------------------------------------------------------------------3---
B----------3---------------------5-----------------------------------------------------3---
G----4----------4-----4/6--6----------6-----6/8--8----------------------------------8--4---
D----5----------------5/7--7----------------7/9--9-----9----------9-----------9-(9)----5---
A----5----------------5/7--7----------------7/9--9-----------9----------9-(9)----------5---
E----3---------------------5---------------------7-------------------------------------3---


     G                     A                     B                          VERSE:      G
e--------------------------------------------------------------------------------------3---
B----------3---------------------5-----------------------------------------------------3---
G----4----------4-----4/6--6----------6-----6/8--8----------------------------------8--4---
D----5----------------5/7--7----------------7/9--9-----9----------9-----------9-(9)----5---
A----5----------------5/7--7----------------7/9--9-----------9----------9-(9)----------5---
E----3---------------------5---------------------7-------------------------------------3---
                                                                              You in the dark

     G                     A                     B                                      G
e-------------------------------------------------------------------------------------------
B----3----3----------------5---------------------7--------------------------------------3---
G----4---------------------6---------------------8--------------------------------------4---
D----5---------------------7---------------------9--------------------------------------5---
A----5---------------------7---------------------9--------------------------------------5---
E----3---------------------5---------------------7--------------------------------------3---
              You in the pain        You on the____run                      Living a He___ll

                           A                     B                                      G
e-------------------------------------------------------------------------------------------
B--------------------------5---------------------7--------------------------------------3---
G--------------------------6---------------------8--------------------------------------4---
D--------------------------7---------------------9--------------------------------------5---
A--------------------------7---------------------9--------------------------------------5---
E--------------------------5---------------------7--------------------------------------3---
             Living your ghost      Living you______r end                             Never

                           A                     B                                      G
e----------------------/5--------------------/7---------------------------------------------
B---------3------------/5--5-----5-----------/7--7--------------------------------------3---
G---------------------4/6--6----------------6/8--8--------------------------------------4---
D---5-----------5------/7--7----------7------/9--9--------------------------------------5---
A---5------------------/7--7-----------------/9--9--------------------------------------5---
E----------------------/5--5-----------------/7--7--------------------------------------3---
    seem to get in the place       Where I belo____ng                      Don't wanna lose

                           A                     B                                      G
e----------------------/5-------------------------------------------------------------------
B---------3------------/5--5---------------------7--------------------------------------3---
G---------------------4/6--6---------------------8-------6------6--6b~~~~-------7-------4---
D---------------5------/7--7---------------------9--------------------------------------5---
A----------------------/7--7---------------------9--------------------------------------5---
E----------------------/5--5---------------------7--------------------------------------3---
     the time           lo___se the time to co___me          

BRIDGE:          A                   G               A               G                  A    
e--------------------------------------------------------------------------------------------
B----------------5-------------------3---------------5---------------3------------------5----
G----------------6-------6-7/97-6h7-4-------6-6/7---6---------6-----4--6------------6--6----
D----------------7-------------------5---------------7---------------5------------------7----
A----------------7-------------------5---------------7---------------5------------------7----
E----------------5-------------------3---------------5---------------3------------------5----
   Whatever you say it's all alright   Whatever you do it's all good    Whatever you say

                                CHORUS:   D                         A
e--------------------------------------------------------------------------------------------
B-----------------------------------------7----------7-------------------------5-------------
G----------------6/8----8-----------------7-----------------7-------6------------------------
D----------------7/9----------------------7-------------------------7-----------------7------
A-----------------------------------------5-------------------------7------------------------
E-------------------------------------------------------------------5------------------------
   it's a____ll right                     Silence is not their way      
      
    F#            Bm                  D                F#               D               B
e-----------------2-----2-----------------------------------2--------------------------------
B-------2---------3---------3---------7-------7-----------------2-------7-------7-------7----
G---3-------------4-------------------7----------------3----------------7---------------8----
D---4-------------4-------------------7----------------4----------------7---------------9----
A---4-------------2-------------------5----------------4----------------5--------------------
E---2--------------------------------------------------2-------------------------------------
     We need to talk about it     If heaven is on the way           If heaven is on the way

    G                      A                             B
e----------------------------------------------------------------
B---------3---------------/5--------5-------------------/7-------
G---4---------------4-----/6--6---------------6--------6/8--8----
D---5----------5---------5/7--7----------7---------7---7/9--9---- x2
A---5---------------------/7--7-------------------------/9-------
E----------------------------------------------------------------

VERSE 2:(Same of VERSE 1)
You in the sea on a decline breaking the sea 


Текст, аккорды и табулатура для песни "Letting The Cables Sleep", исполняет "Bush".
Используемые в песне аккорды можно найти в разделе Как брать аккорды. Аккорды для шестиструнной гитары. Другие песни можно найти на нашем сайте, воспользовавшись алфавитным указателем вверху страницы.


 
Ошибка в тексте? Выделите ошибку и нажмите Ctrl+Enter