E||-----2--0--------2--0-----|-----0s-------2--0--------|
B||--4-----------4--------2--|--4s----4--4-----------4--|
G||--------------------------|--------------------------|
D||--------------------------|--------------------------|
A||--------------------------|--------------------------|
E||-----------4~-------------|--------------------4~----|

                                                                              
--2--0--------------0-----|--0h-------------------|--0--2-----2--0--------2--
--------2--2s-4--4h-------|-----4-----------0--4h-|--------4-----------4-----
--------------------------|-----------------------|--------------------------
--------------------------|-----------------------|--------------------------
--------------------------|-----------------------|--------------------------
-----------------------4~-|--------------4--------|-----------------4~-------


                                                                             
--0-----------0---------|-------------------2--0--|--------2--0--------------
-----2--2--4h----4------|-------------0--4--------|-----4--------2--2s-4--4h-
------------------------|----------3--------------|--------------------------
------------------------|-------1-----------------|--------------------------
------------------------|-------------------------|--------------------------
------------------------|----4--------------------|--4~----------------------

                                                                               
--0h------0-------------|---------2--0--------2--|--0--------------0h-11--14-
-----4-------0-----0----|------4-----------4-----|--------2--2--4h-----------
------------------------|------------------------|------------------------11-
----------------4-------|------------------------|---------------------------
----------2-------------|------------------------|---------------------------
------------------------|---------------4~-------|-----4---------------------


                                                              
--12--11--14--12----------11s-12s-|--11----------------------|
------------------14--14----------|--------------------------|
----------------------------------|--------------------------|
--14------16--14--------------14s-|--13----------------2--4s-|
----------------------------------|-----------------2--------|
----------------------------------|--------0--2--4-----------|
                                                                               
--------0--7--6----------|--------------------------|--0--7--6--0------------
-----0-----------7-------|-----------------------0--|-----------------4----4-
--1----------------------|--------------------1-----|------------------------
-------------------------|-----------2--4--4s-------|------------------------
-------------------------|--------2-----------------|------------------------
----------------------0--|--2s-4--------------------|--------------4---------


                                                                             
--2--0----------------0--|-----2--0--------2--0-----|-----------------------|
-------------2--2--4h----|--4-----------4--------2--|--2--------0-----------|
-------------------------|--------------------------|--------1-----3--------|
-------------------------|--------------------------|-----------------------|
-------------------------|--------------------------|-----------------------|
----------4--------------|-----------4--------------|-----4-----------------|


                                                
--11----------------------|-------------------||
--------11----12----------|----0--------------||
--------------------------|----3--------------||
--------------------------|----6--------------||
------------------11------|-------------------||
--------------------------|----4--------------||


Текст, аккорды и табулатура для песни "Ghost Pt 2", исполняет "Buckethead".
Используемые в песне аккорды можно найти в разделе Как брать аккорды. Аккорды для шестиструнной гитары. Другие песни можно найти на нашем сайте, воспользовавшись алфавитным указателем вверху страницы.


 
Ошибка в тексте? Выделите ошибку и нажмите Ctrl+Enter