Song: Timebomb
Artist: Buckcherry
Album: Timebomb


To play this song, one guitar is tuned to Open G tuning.  This means
you tune the A string down to G, and the E strings down to D, so the
tuning looks like this.

-d--
-b--
-g--
-d--
-g--
-d--


NOTE: To play this song, the high G does not need to be tuned down since
it is not used.

d---------------------------------------------------------------------------|
b---------------------------------------------------------------------------|
g-----------------0-0--0------------------0-3--0--------------------0-0--0--|
d-----------------0-0--0------------------3-3--3--------------------2-2--2--|
g---0--3(5)-------0-0--0----0--3(5)-------0-0--0----0--3(5)---------0-0--0--|
d------------3-----------------------3-------------------------3------------|

d---------------------------------------------------------------------------|
b---------------------------------------------------------------------------|
g-----------------0-0--0----------------------------------------------------|
d-----------------0-0--0----------------------------------------------------|
g---0--3(5)-------0-0--0----------------------------------------------------|
d------------3--------------------------------------------------------------|

Notice that you play part with all open strings at the begaining and the end
of the riff.

Above is the intro and verse riff.  The bridge is:

d-------------------------|
b-------------------------|
g---5-------7-------10----|    Listen for the rhythem
d---5-------7-------10----|
g---5-------7-------10----|      (When it goes down...)
d-------------------------|

The chorus is:

d---------------------------------------------------------------------------|
b---------------------------------------------------------------------------|
g-----------------0-0--0------------------0-0--0--------------------5-5-5-5-|
d-----------------0-0--0------------------0-0--0---------3-3-3-3----5-5-5-5-|
g---0--3(5)-------0-0--0----0--3(5)-------0-0--0---------5-5-5-5----5-5-5-5-|
d------------3-----------------------3-------------------3-3-3-3------------|

(They're comin' for you...)

Lyrics:

The minute I'm at the back door
That's the minute there's complications
The second I'm in the action
Another bona fide bad creation

When it goes down
They come around
Money, greed, defaces
When it falls
They wont be found
The spotlight queen chases

It's coming for you
It's coming for me
Life ain't nothing but
Bitches and Money
Nothing to lose
Nothing for free
Can't stop now I got Bitches and Money
It's a time bomb
It's a time bomb
Yeah yeah yeah

The moment I hit the bedroom
That's the moment I'm activated
The talking I spend before ya
The less I want to know ya

The longer I get before ya
Puts out a blast like a super nova
And if you want a roller coaster
Just take a slow ride on my shotgun

Thats it, enjoy.  Questions, comments?  [email protected]


Текст, аккорды и табулатура для песни "Timebomb", исполняет "Buckcherry".
Используемые в песне аккорды можно найти в разделе Как брать аккорды. Аккорды для шестиструнной гитары. Другие песни можно найти на нашем сайте, воспользовавшись алфавитным указателем вверху страницы.


 
Ошибка в тексте? Выделите ошибку и нажмите Ctrl+Enter