ROUND KID
Buck-O-Nine
 


starts of with guitar intro
 
verse
 
G -------4------6--------------------------------------- |---------4------6------------------------------------------
D ---4-----7------7-------------------------------------| ------4----7-------7------------------------------------- (x4)
A 5-------------------7--4--7--4---------------------2|--5---------------------7--4--7--4----------0--2--3--4
E--------------------------------------7--4--0--2--4---|----------------------------------------7--4----------------
 
chorus
 
G-----------------------------------------------------|-------------------------------------
D 0000--2222--0000--2222--0000--2222-|----------2--4--2------------0--2 (x2)  (repeat part behind line on 2nd)
A------------------------------------------------------|--0--4---------------4--2---------
E------------------------------------------------------|-------------------------------------
 
verse (x3)
chorus
 
bridge
 
G--------------------------------------------|---------------------------------8-----------8---|-------------------------------|
D--------------------------------------------|------------------------------8-----8----8-----8|-------------------------------|
A-----------5555-------------7--5--4--5|----------5555----------7-----------7---------| (repeat up to 1st line)|
E--7777-----------5555-----------------|-7777-----------5555-------------------------|--------------------------------|
 
   -------------------------------------------------------------  
   -----9------9------9------9------9------9------9------9
   7-------7------7------7------7------7------7------7----
   -------------------------------------------------------------
 
verse (x3)
chorus (only play it once, but repeat the last part x4)
 
outro
 
G-----------------------------------
D----------2--0--4-----------0---
A --0--4--------------4--2-----0
E-----------------------------------

It may be a little tricky at first, but it get's easier, trust me,
 
Ryan


Текст, аккорды и табулатура для песни "Round Kid", исполняет "Buck-o-nine".
Используемые в песне аккорды можно найти в разделе Как брать аккорды. Аккорды для шестиструнной гитары. Другие песни можно найти на нашем сайте, воспользовавшись алфавитным указателем вверху страницы.


Слушать онлайн Round Kid


Buck-O-NineRound Kid на Яндекс.Музыке


 
Ошибка в тексте? Выделите ошибку и нажмите Ctrl+Enter