Artist:Brujeria
Song: Narcos Satanicos
Album:Matando Gueros

Transcribed by: Juan Carlos( Asesino)- [email protected]
Tuning: 5 steps below standard (Low to High: A D G C E A)

   These Riffs are in Order

------INTRO----     Play 2x's


|- - - - - - - - - - - -  - - - - - - - - - |
|- - - - - - - - - - - -  - - - - - - - - - |
|- - - - - - - - - -  - - - - - - - - - - - |
|- - - - - - - - - - - - - - - -   -  - - - |
|- - -4-4-5-4-5 -  - -4-4-5-4-5 - - - - - - |
|- - -4-4-5-4-5  - - -4-4-5-4-5 - - - - - - |


--------VERSE-------    Play  2x's



|- - - - -- - - - - - - - - - - - - - -- - - - - - - - - - - -- - - - -- - - - -|
|- - - - -- - - - - - - - - - - - - - -- - - - - - - - - - -  - - - - -- -  ----|
|- - - - -- - - - - - - - - - - - - - -- - - - - - - - - - - -- - - - -   - -  -|
|- - 4-4-5-4-5-4-4-5-4-5-3-3- - -- - - - - - - -4-4-5-4-5-4-4-5-4-5-3-3-3-3- -- |
|- - 4-4-5-4-5-4-4-5-4-5-3-3- - -- - - - - - - -4-4-5-4-5-4-4-5-4-5-3-3 3-3- - -|
|- - 4-4-5-4-5-4-4-5-4-5-3-3-- - -- - - - - - - 4-4-5-4-5-4-4-5-4-5-3-3-3-3 - - |





--------Riff------------   PLAY  2x's


|- - - - - - - - - - - - - -  - - - - - - - - - - - - -|
|- - - - - - - - - - - - - - - - - - - - - -  - - - - -|
|- - - - - - - - - - - - - - - - - - - - - - - -- - - -|
|- -444445-444445-3-3 - - - - - - -444445-444445-3-3- -|
|- -444445-444445-3-3 - - - - - - -444445-444445-3-3 --|
|- -444445-444445-3-3 - - - - - - -444445-444445-3-3- -|




--------VERSE-------    Play  2x's



|- - - - -- - - - - - - - - - - - - - -- - - - - - - - - - - - - - -- - - - - - -|
|- - - - --    -- - - - - - - - - - - -- - - - - - - - - - - - -  - -- - - - - - |
|- - - - -- -  -- - - - - - - - - - - -- - - - - - - - - - - - - - -- - - - - - -|
|- - 4-4-5-4-5-4-4-5-4-5-3-3- - -- - - - - - - - 4-4-5-4-5-4-4-5-4-5-3-3-3-3-- - |
|- - 4-4-5-4-5-4-4-5-4-5-3-3- - -- - - - - - - - 4-4-5-4-5-4-4-5-4-5-3-3-3-3 -  -|
|- - 4-4-5-4-5-4-4-5-4-5-3-3-- - -- - - - - - -  4-4-5-4-5-4-4-5-4-5-3-3-3-- - - |




--------Riff------------   PLAY  2x's


|- - - - - - - - - - - - - - - - - - - - - - -  - - - -|
|- - - - - - - - - - - - - - - - - - - - - - - - - -- -|
|- -  - - - - - - - -- - - - - - - -- - - - - - - - - -|
|- -444445-444445-3-3 - - - - - - -444445-444445-3-3 --|
|- -444445-444445-3-3 - - - - - - -444445-444445-3-3  -|
|- -444445-444445-3-3 - - - - - - -444445-444445-3-3- -|




--------------BRIDGE------------


|- - - - - - - - - - - - - - - - - - - - - - - -|
|- - - - - - - - - - - - - - - - - - - -  --- - |
|- - - - - - - - - - - - - - - - - - - -  - - - |
|- -7 - -  - -8 - - - -7- - - - - 8- - - - - -- |
|- -7 - -  - -8 - - - -7 - - - - -8- - - - - - -|
|- -7- - - -  8- - - - 7 - - - -- 8- - - - - -- |





--------VERSE-------    Play  2x's

|- - - - -- - - - - - - - - - - - - - -- - - - - - - - - - - - - - -- - - - - - -|
|- - - - --    -- - - - - - - - - - - -- - - - - - - - - - - - -  - -- - - - - - |
|- - - - -- -  -- - - - - - - - - - - -- - - - - - - - - - - - - - -- - - - - - -|
|- - 4-4-5-4-5-4-4-5-4-5-3-3- - -- - - - - - - - 4-4-5-4-5-4-4-5-4-5-3-3-3-3-- - |
|- - 4-4-5-4-5-4-4-5-4-5-3-3- - -- - - - - - - - 4-4-5-4-5-4-4-5-4-5-3-3-3-3 -  -|
|- - 4-4-5-4-5-4-4-5-4-5-3-3-- - -- - - - - - -  4-4-5-4-5-4-4-5-4-5-3-3-3-- - - |







--------Riff------------   PLAY  2x's

|- - - - - - - - - - - - - - - - - - - - - - -  - - - -|
|- - - - - - - - - - - - - - - - - - - - - - - - - -- -|
|- -  - - - - - - - -- - - - - - - -- - - - - - - - - -|
|- -444445-444445-3-3 - - - - - - -444445-444445-3-3 --|
|- -444445-444445-3-3 - - - - - - -444445-444445-3-3  -|
|- -444445-444445-3-3 - - - - - - -444445-444445-3-3- -|






--------VERSE-------    Play  2x's

|- - - - -- - - - - - - - - - - - - - -- - - - - - - - - - - - - - -- - - - - - -|
|- - - - --    -- - - - - - - - - - - -- - - - - - - - - - - - -  - -- - - - - - |
|- - - - -- -  -- - - - - - - - - - - -- - - - - - - - - - - - - - -- - - - - - -|
|- - 4-4-5-4-5-4-4-5-4-5-3-3- - -- - - - - - - - 4-4-5-4-5-4-4-5-4-5-3-3-3-3-- - |
|- - 4-4-5-4-5-4-4-5-4-5-3-3- - -- - - - - - - - 4-4-5-4-5-4-4-5-4-5-3-3-3-3 -  -|
|- - 4-4-5-4-5-4-4-5-4-5-3-3-- - -- - - - - - -  4-4-5-4-5-4-4-5-4-5-3-3-3-- - - |


Текст, аккорды и табулатура для песни "Narcos Satanicos", исполняет "Brujeria".
Используемые в песне аккорды можно найти в разделе Как брать аккорды. Аккорды для шестиструнной гитары. Другие песни можно найти на нашем сайте, воспользовавшись алфавитным указателем вверху страницы.


 
Ошибка в тексте? Выделите ошибку и нажмите Ctrl+Enter