From [email protected] Thu Mar 30 18:28:29 PST 1995
 Article: 14836 of rec.music.makers.guitar.acoustic
 Path: unixg.ubc.ca!news.bc.net!torn!howland.reston.ans.net!news.starnet.net!wupost!waikato!canterbury.ac.nz!MANUKA.lincoln.ac.nz!pc095229.lincoln.ac.nz!whitej
 From: [email protected] (White, Jared Conway)
 Newsgroups: rec.music.makers.guitar.acoustic
 Subject: TAB:***Bruce Cockburn-Train In The Rain***
 Date: Fri, 31 Mar 1995 09:30:12
 Organization: Lincoln University, New Zealand
 Lines: 330
 Message-ID: 
 NNTP-Posting-Host: pc095229.lincoln.ac.nz
 X-Newsreader: Trumpet for Windows [Version 1.0 Rev A]
 
 Train in the Rain  - Bruce Cockburn
 ~~~~~~~~~~~~~~~~~
 >From  Dart to the Heart (1994).
 
 Transcribed and tabbed by Jared White ([email protected])
 And John Kean ([email protected]).
 
 We found it difficult to transcribe the exact rhythm - the feel of
 The piece is most important, and tab cannot capture this.
 We're not 100% happy with our transcription for measures 41 to 43 (and
 Their repeats), but we felt that we tabbed the best compromise.  If anyone
 Has any better suggestions *please* let us know!  Don't be put off by the
 Length of this tab: most of it is repeats!  8^)
 
 Any comments, suggestions etc appreciated.  Enjoy...
 
 
 Use a combination of strumming and clawhammer style fingerpicking,
 Keeping the bass chugging like a train.  Be percussive.
 
 Cockburn plays this on a resonator guitar.
 
 Tuning: drop D (DADGBE)
 Capo:   2nd fret
 Timing: 4/4
 Tempo:  MM = 104 (total track time = 3:45)
 
 
  1  ,   .   ,   .   ,   .   ,   .     ,   .   ,   .   ,   .   ,   .
 ----------------------------------|
 ||--3---------3-----3-------3-------|-3-----3-------3---3-----3-------|
 ||*-2---------2-----0-------4-------|-2-----2-------2---2-----2-------|
 ||*-0---------0---0-------0-------0-|-------0-------0---0---0-------0-|
 ----------------------------------|
 ||--0---0---0---0---0---0---0---0---|-0---0---0---0---0---0---0---0---|
 
 
  5,   .   ,   .   ,   .   ,   .     ,   .   ,   .   ,   .   ,   .
 ---------------------------------------------||
 |-3---------3-----3-------3-------|-3-----3-------3---3-----3--------||
 |-2---------2-----0-------4-------|-2-----2-------2---2-----2-------*||
 |-0---------0---0-------0-------0-|-------0-------0---0---0-------0-*||
 ---------------------------------------------||
 |-0---0---0---0---0---0---0---0---|-0---0---0---0---0---0---0---0----||
 
 
  9 ,   .   ,   .   ,   .   ,   .     ,   .   ,   .   ,   .   ,   .
 ||10p5---------------------------------------------------|
 ||-----7-----5-----------3---------|---3-----------3-----3-----------|
 ||-------76-------64-------------|---4-----6---6-4-----4---------2-|
 |----7-----5-----------7---5-----5-----4/5---|
 ||-0---0---0---0---0---0---0-------|-0---0---0---0---0---0---0---0---|
 ||-0---0---0---0---0---0---0-------|-0---0---0---0---0---0---0---0---|
 
 
 11,   .   ,   .   ,   .   ,   .     ,   .   ,   .   ,   .   ,   .
 --------------------------------------------|
 |-3---------3-----3-------3-------|-3-----3-------3---3-----3-------|
 |-2---------2-----2-------2-------|-2-----2-------2---2-----2-------|
 |-0---------0---0-------0-------0-|-------0-------0---0---0-------0-|
 --------------------------------------------|
 |-0---0---0---0---0---0---0---0---|-0---0---0---0---0---0---0---0---|
 
 
 13,   .   ,   .   ,   .   ,   .     ,   .   ,   .   ,   .   ,   .
 |10p5---------------------------------------------------|
 |-----7-----5-----------3---------|---3-----------3-----3-----------|
 |-------76-------64-------------|---4-----6---6-4-----4---------2-|
 ----7-----5-----------7---5-----5-----4/5---|
 |-0---0---0---0---0---0---0---0---|-0---0---0---0---0---0---0---0---|
 |-0---0---0---0---0---0---0---0---|-0---0---0---0---0---0---0---0---|
 
 
 15,   .   ,   .   ,   .   ,   .     ,   .   ,   .   ,   .   ,   .
 --------------------------------------------||
 ----------------2---------------------------||
 2-----2---------------|-2-----------------2-----2-------||
 0---0-------4/5-----4---------0---0---------||
 |-0---0---0---0---0---0---0---0---|-0---0---0---0---0---0---0-------||
 |-0---0---0---0---0---0---0---0---|-0---0---0---0---0---0---0---0---||
 
 
 17  ,   .   ,   .   ,   .   ,   .     ,   .   ,     .   ,   .   ,     .
 -------------------------------------|
 -------------------------------------|
 ||*----------------------------------------------------------|
 ||*---5-----5-----5---5-----5-------|-----0-0-2h4p2p0---0-----0----------|
 ||----2-x---2-----2---2-x---2-----2-|-0h2-------------2---0h2---2h3p2p0--|
 ||-h2-----2-----2---2-----2-----2----------------------------|
 
 
 19,   .   ,   .   ,   .   ,   .     ,   .   ,   .   ,   .   ,   .
 ---------------------------------------------||
 |---------3-3-3-3---3-------------|---------3-3-3-3---3--------------||
 |-----2-2-2-2-2-2---0---0---0---0-|---------2-2-2-2---2-------2-2-0-*||
 |-----0-0-0-0-0-0---0---0---0---0-|-----0-0-0-0-0-0---0---0---0-0-0-*||
 |-0---------------x---x---0---x---|-0---------------x---x-0-0--------||
 |-0---0-------------------0-------|-0-----------------------0--------||
 
 
 25 ,   .   ,   .   ,   .   ,   .     ,   .   ,   .   ,   .   ,   .
 ||10p5---------------------------------------------------|
 ||-----7-----5-----------3---------|---3-----------3-----3-----------|
 ||-------76---6---64-------------|---4-----6---6-4-----4---------2-|
 |----7-----5-----------7---5-----5-----4/5---|
 ||-0---0---0---0---0---0---0---0---|-0---0---0---0---0---0---0---0---|
 ||-0---0---0---0---0---0---0---0---|-0---0---0---0---0---0---0---0---|
 
 
 27,   .   ,   .   ,   .   ,   .     ,   .   ,   .   ,   .   ,   .
 --------------------------------------------|
 |-3---------3-----3-------3-------|-3-----3-------3---3-----3-------|
 |-2---------2-----2-------2-------|-2-----2-------2---2-----2-------|
 |-0---------0---0-------0-------0-|-------0-------0---0---0-------0-|
 --------------------------------------------|
 |-0---0---0---0---0---0---0---0---|-0---0---0---0---0---0---0---0---|
 
 
 29,   .   ,   .   ,   .   ,   .     ,   .   ,   .   ,   .   ,   .
 |10p5---------------------------------------------------|
 |-----7-----5-----------3---------|---3-----------------3-----------|
 |-------76---6---64-------------|---4-----6---6-4-----4---------2-|
 ----7-----5-----------7---5-----5-----4/5---|
 |-0---0---0---0---0---0---0---0---|-0---0---0---0---0---0---0---0---|
 |-0---0---0---0---0---0---0---0---|-0---0---0---0---0---0---0---0---|
 
 
 31,   .   ,   .   ,   .   ,   .     ,   .   ,   .   ,   .   ,   .
 --------------------------------------------||
 ----------------2---------------------------||
 2-----2---------------|-2-----------------2-----2-------||
 0---0-------4/5-----4---------0---0---------||
 |-0---0---0---0---0---0---0---0---|-0---0---0---0---0---0---0-------||
 |-0---0---0---0---0---0---0---0---|-0---0---0---0---0---0---0---0---||
 
 
 33  ,   .   ,   .   ,   .   ,   .     ,   .   ,     .   ,   .   ,     .
 -------------------------------------|
 -------------------------------------|
 ||*----------------------------------------------------------|
 ||*---5-----5-----5---5-----5-------|-----0-0-2h4p2p0---0-----0----------|
 ||----2-x---2-----2---2-x---2-----2-|-0h2-------------2---0h2---2h3p2p0--|
 ||-h2-----2-----2---2-----2-----2----------------------------|
 
 
 35,   .   ,   .   ,   .   ,   .     ,   .   ,   .   ,   .   ,   .
 |---------2-2-2-2---0-------------|-------3---3---3---2--------------||
 |---------3-3-3-3---3-------------|-------3---3---3---3--------------||
 |-----2-2-2-2-2-2---0---0---0---0-|-----2-2---2---2---2---2---2-2-0-*||
 |-----0-0-0-0-0-0---0---0---0---0-|-----0-0---0---0---0---0---0-0-0-*||
 |-0---------------x---x---0---x---|-0-------x---x---x---x---0--------||
 |-0-----------------------0-------|-0-----------------------0--------||
 
 
 41  ,   .   ,   .   ,   .   ,   .     ,   .   ,   .   ,   .   ,   .
 ------------------2---------------|
 ||------2-----3-----5-----3---2-----|-----3-----5-----3-----5---3-----|
 ||*----------(0)---(0)---(0)--------2----(2)----2--(2)----|
 ||*---2-----4-----5-----4-----2---2-|---4-----4-----4-----4-----4---4-|
 ||--0-----0-----0-----0-----0---0---|-2-----2-----2-----2-----2---2---|
 ----------------------------------|
 
                                   .....................................
                                    1.                                 |
 43,   .   ,   .   ,   .   ,   .     ,   .   ,   .   ,   .   ,   .     |
 ---------------------------------------------||
 3-----5-----3---2---0-|-------0---0-----0-----0---0------||
 |----------(0)---(0)---(0)------0-|-------0---0-----0-----0---0-----*||
 |---2-----4-----5-----4-----2---0-0---0-------0---0---0-*||
 |-0-----0-----0-----0-----0---0--------------------------||
 ----------------------|-5---5---5---5---5---5---5---5----||
 
 ...................................
  2.
 48,   .   ,   .   ,   .   ,   .     ,   .   ,   .   ,   .   ,     .
 ----------------------------------------------|
 |-------0---0-----0---------------------------------------|
 |-------0---0-----0-------2-------------------------------|
 0---0-------0-------0-|-4-----4-------4---4-----4p2p0-----|
 ----------------------|-0-----0-------0---0---0-------2p0-|
 |-5---5---5---5---5---5---4---4---|-0---0---0---0---0---0-------------|
 
 
 50,   .   ,   .   ,   .   ,   .
 ----------------------||
 3-----3---------3-----||
 2-----2---------2-----||
 |-0-----0---0---0-------0---0---0-||
 |-------0-------------------------||
 |-0---0---0---0---0---0---0---0---||
 
 
 51  ,   .   ,   .   ,   .   ,   .     ,   .   ,   .   ,   .   ,   .
 ----------------------------------|
 ||--3---------3-----3-------3-------|-3-----3-------3---3-----3-------|
 ||*-2---------2-----0-------4-------|-2-----2-------2---2-----2-------|
 ||*-0---------0---0-------0-------0-|-------0-------0---0---0-------0-|
 ----------------------------------|
 ||--0---0---0---0---0---0---0---0---|-0---0---0---0---0---0---0---0---|
 
 
 55 ,   .   ,   .   ,   .   ,   .     ,   .   ,   .   ,   .   ,   .
 ----------------------------------||
 ||-3---------3-----3-------3-------|-3-----3-------3---3-----3--------||
 ||-2---------2-----0-------4-------|-2-----2-------2---2-----2-------*||
 ||-0---------0---0-------0-------0-|-------0-------0---0---0-------0-*||
 ----------------------------------||
 ||-0---0---0---0---0---0---0---0---|-0---0---0---0---0---0---0---0----||
 
 
 59 ,   .   ,   .   ,   .   ,   .     ,   .   ,   .   ,   .   ,   .
 ||10p5---------------------------------------------------|
 ||-----7-----5-----------3---------|---3-----------------3-----------|
 ||-------76---6---64-------------|---4-----6---6-4-----4---------2-|
 |----7-----5-----------7---5-----5-----4/5---|
 ||-0---0---0---0---0---0---0---0---|-0---0---0---0---0---0---0---0---|
 ||-0---0---0---0---0---0---0---0---|-0---0---0---0---0---0---0---0---|
 
 
 61,   .   ,   .   ,   .   ,   .     ,   .   ,   .   ,   .   ,   .
 --------------------------------------------|
 |-3---------3-----3-------3-------|-3-----3-------3---3-----3-------|
 |-2---------2-----2-------2-------|-2-----2-------2---2-----2-------|
 |-0---------0---0-------0-------0-|-------0-------0---0---0-------0-|
 --------------------------------------------|
 |-0---0---0---0---0---0---0---0---|-0---0---0---0---0---0---0---0---|
 
 
 63,   .   ,   .   ,   .   ,   .     ,   .   ,   .   ,   .   ,   .
 |10p5---------------------------------------------------|
 |-----7-----5-----------3---------|---3-----------3-----3-----------|
 |-------76---6---64-------------|---4-----6---6-4-----4---------2-|
 ----7-----5-----------7---5-----5-----4/5---|
 |-0---0---0---0---0---0---0---0---|-0---0---0---0---0---0---0---0---|
 |-0---0---0---0---0---0---0---0---|-0---0---0---0---0---0---0---0---|
 
 
 65,   .   ,   .   ,   .   ,   .     ,   .   ,   .   ,   .   ,   .
 --------------------------------------------||
 ----------------2---------------------------||
 2-----2---------------|-2-----------------2-----2-------||
 0---0-------4/5-----4---------0---0---------||
 |-0---0---0---0---0---0---0---0---|-0---0---0---0---0---0---0-------||
 |-0---0---0---0---0---0---0---0---|-0---0---0---0---0---0---0---0---||
 
 
 67  ,   .   ,   .   ,   .   ,   .     ,   .   ,     .   ,   .   ,     .
 -------------------------------------|
 -------------------------------------|
 ||*----------------------------------------------------------|
 ||*---5-----5-----5---5-----5-------|-----0-0-2h4p2p0---0-----0----------|
 ||----2-x---2-----2---2-x---2-----2-|-0h2-------------2---0h2---2h3p2p0--|
 ||-h2-----2-----2---2-----2-----2----------------------------|
 
 
 69,   .   ,   .   ,   .   ,   .     ,   .   ,   .   ,   .   ,   .
 |---------2-2-2-2---0-------------|-------3---3---3---2--------------||
 |---------3-3-3-3---3-------------|-------3---3---3---3--------------||
 |-----2-2-2-2-2-2---0---0---0---0-|-----2-2---2---2---2---2---2-2-0-*||
 |-----0-0-0-0-0-0---0---0---0---0-|-----0-0---0---0---0---0---0-0-0-*||
 |-0---------------x---x---0---x---|-0-------x---x---x---x---0--------||
 |-0-----------------------0-------|-0-----------------------0--------||
 
 
 75  ,   .   ,   .   ,   .   ,   .     ,   .   ,   .   ,   .   ,   .
 ------------------2---------------|
 ||------2-----3-----5-----3---2-----|-----3-----5-----3-----5---3-----|
 ||*----------(0)---(0)---(0)--------2----(2)----2--(2)----|
 ||*---2-----4-----5-----4-----2---2-|---4-----4-----4-----4-----4---4-|
 ||--0-----0-----0-----0-----0---0---|-2-----2-----2-----2-----2---2---|
 ----------------------------------|
 
                                   .....................................
                                    1.                                 |
 77,   .   ,   .   ,   .   ,   .     ,   .   ,   .   ,   .   ,   .     |
 ---------------------------------------------||
 3-----5-----3---2---0-|-------0---0-----0-----0---0------||
 |----------(0)---(0)---(0)------0-|-------0---0-----0-----0---0-----*||
 |---2-----4-----5-----4-----2---0-0---0-------0---0---0-*||
 |-0-----0-----0-----0-----0---0--------------------------||
 ----------------------|-5---5---5---5---5---5---5---5----||
 
 ...................................
  2.
 82,   .   ,   .   ,   .   ,   .     ,   .   ,   .   ,   .   ,     .
 ----------------------------------------------|
 |-------0---0-----0---------------------------------------|
 |-------0---0-----0-------2-------------------------------|
 0---0-------0-------0-|-4-----4-------4---4-----4p2p0-----|
 ----------------------|-0-----0-------0---0---0-------2p0-|
 |-5---5---5---5---5---5---4---4---|-0---0---0---0---0---0-------------|
 
 
 84,   .   ,   .   ,   .   ,   .
 ----------------------||
 3-----3---------3-----||
 2-----2---------2-----||
 |-0-----0---0---0-------0---0---0-||
 |-------0-------------------------||
 |-0---0---0---0---0---0---0---0---||
 
 
 85  ,   .   ,   .   ,   .   ,   .     ,   .   ,   .   ,   .   ,   .
 ----------------------------------|
 ||--3---------3-----3-------3-------|-3-----3-------3---3-----3-------|
 ||*-2---------2-----0-------4-------|-2-----2-------2---2-----2-------|
 ||*-0---------0---0-------0-------0-|-------0-------0---0---0-------0-|
 ----------------------------------|
 ||--0---0---0---0---0---0---0---0---|-0---0---0---0---0---0---0---0---|
 
 
 89 ,   .   ,   .   ,   .   ,   .     ,   .   ,   .   ,   .   ,   .
 ----------------------------------||
 ||-3---------3-----3-------3-------|-3-----3-------3---3-----3--------||
 ||-2---------2-----0-------4-------|-2-----2-------2---2-----2-------*||
 ||-0---------0---0-------0-------0-|-------0-------0---0---0-------0-*||
 ----------------------------------||
 ||-0---0---0---0---0---0---0---0---|-0---0---0---0---0---0---0---0----||
 
 
 93 ,   .   ,   .   ,   .   ,   .
 -----------||
 ||-------3-------------------------||
 |----------------------|| Fine.
 ||---0-----------------------------||
 -----------||
 ||-0-------------------------------||
 
 
 
 
 



Текст, аккорды и табулатура для песни "Train in the rain", исполняет "Bruce Cockburn".
Используемые в песне аккорды можно найти в разделе Как брать аккорды. Аккорды для шестиструнной гитары. Другие песни можно найти на нашем сайте, воспользовавшись алфавитным указателем вверху страницы.


 
Ошибка в тексте? Выделите ошибку и нажмите Ctrl+Enter