Tab. Rob .M
Brides Of Destruction
S.T.F.U

- b=bend
- r=release
- h=hammer-on
- p=pull-off
- T=tapping

Intro 

e|----------------------------------|
B|----------------------------------|
G|---7---7-7-7-7-7-7-7-7-7-7-7-7-8--|
D|---7---7-7-7-7-7-7-7-7-7-7-7-7-8--| (keep repeating)
A|---5---5-5-5-5-5-5-5-5-5-5-5-5-6--|
E|----------------------------------|

Verse
  pm...............................
e|----------------------------------|
B|----------------------------------|
G|---7---7-7-7-7-7-7-7-7-7-7-7-7-8--|
D|---7---7-7-7-7-7-7-7-7-7-7-7-7-8--| X4
A|---5---5-5-5-5-5-5-5-5-5-5-5-5-6--|
E|----------------------------------|

e|----------------------------------|
B|----------------------------------|
G|---7---7-7-7-7-7-7-7-7-7-7-7-7-8--|
D|---7---7-7-7-7-7-7-7-7-7-7-7-7-8--| X3
A|---5---5-5-5-5-5-5-5-5-5-5-5-5-6--|
E|----------------------------------|

e|-------------------------|
B|-------------------------|
G|-7---7-7-7-7-8-7--7-7-5--|
D|-7---7-7-7-7-8-7--7-7-5--|
A|-5---5-5-5-5-6-5--5-5-3--|
E|-------------------------|

Chorus                

e|-----------------10-10-10-10-10-10-10-10-10-10-10-10-10-10--|
B|-----------------10-10-10-10-10-10-10-10-10-10-10-10-10-10--|
G|-7---5--10---7----------------------------------------------|
D|-5---3---8---5----------------------------------------------|
A|-5---3---8---5----------------------------------------------|
E|------------------------------------------------------------|

                 pm...........................
e|----------------------------------------------|
B|----------------------------------------------|
G|-7---5--10---7--------------------------------|
D|-5---3---8---5--------------------------------|
A|-5---3---8---5--------------------------------|
E|-----------------5-5-5-5-5-5-5-5-5-5-5-5-5-5--|

e|-----------------13-13-13-13-13-13-13-13-13-13-13-13-13-13--|
B|-----------------13-13-13-13-13-13-13-13-13-13-13-13-13-13--|
G|-7---5--10---7----------------------------------------------|
D|-5---3---8---5----------------------------------------------|
A|-5---3---8---5----------------------------------------------|
E|------------------------------------------------------------|

e|-----------------------------|
B|-----------------------------|
G|-7---5---2-2-2-2-2-2-2-2--2--|
D|-5---3---0-0-0-0-0-0-0-0--0--|
A|-5---3---0-0-0-0-0-0-0-0--0--|
E|-----------------------------|

Solo

e|-----------------------|
B|-----------------------|
G|-7-7-7-7-8--7-7-7-7-5--|
D|-5-5-5-5-6--5-5-5-5-3--|
A|-5-5-5-5-6--5-5-5-5-3--|
E|-----------------------|

   T        T        T        T        T        T        T        T
e|-15p13p10-15p13p10-15p13p10-15p13p10-15p13p10-15p13p10-15p13p10-15p13p10-|
B|-------------------------------------------------------------------------|
G|-------------------------------------------------------------------------|
D|-------------------------------------------------------------------------|
A|-------------------------------------------------------------------------|
E|-------------------------------------------------------------------------|

   T        T        T        T        T        T        T        T
e|-17p13p10-17p13p10-17p13p10-17p13p10-17p13p10-17p13p10-17p13p10-17p13p10-|
B|-------------------------------------------------------------------------|
G|-------------------------------------------------------------------------|
D|-------------------------------------------------------------------------|
A|-------------------------------------------------------------------------|
E|-------------------------------------------------------------------------|

   T       T       T       T       T       T       T       T
e|-15p10p8-15p10p8-15p10p8-15p10p8-15p10p8-15p10p8-16p10p8-17p10p8--------15----15-17-20-20b22-|
B|------------------------------------------------------------------15-18----18----------------|
G|---------------------------------------------------------------------------------------------|
D|---------------------------------------------------------------------------------------------|
A|---------------------------------------------------------------------------------------------|
E|---------------------------------------------------------------------------------------------|

e|-15-15p13------------------------------------------------------------------------------------|
B|---------15-15p13----------------------------------------------------------------------------|
G|-----------------14-17p14p12h14p12-----------------------------------------------------------|
D|----------------------------------15-17p15p12-17p15p12-17p15p12-17p15p12-------15h17p15------|
A|-------------------------------------------------------------------------15h17---------17-17-|
E|---------------------------------------------------------------------------------------------|

e|-------------------------------10/13-15/17-20b22-|
B|-------------------------10/13-------------------|
G|-------------------10-12-------------------------|
D|-------------10/12-------------------------------|
A|-------10-12-------------------------------------|
E|-10/13-------------------------------------------|

Outro

e|-------------------------------------|
B|-------------------------------------|
G|-7----10----5----2-2-2-2-2-2-2-2--2--|
D|-5-----8----3----0-0-0-0-0-0-0-0--0--|
A|-5-----8----3----0-0-0-0-0-0-0-0--0--|
E|-------------------------------------|


Текст, аккорды и табулатура для песни "Shut The Fuck Up", исполняет "Brides Of Destruction".
Используемые в песне аккорды можно найти в разделе Как брать аккорды. Аккорды для шестиструнной гитары. Другие песни можно найти на нашем сайте, воспользовавшись алфавитным указателем вверху страницы.


 
Ошибка в тексте? Выделите ошибку и нажмите Ctrl+Enter