Band: Breaking Benjamin
Song: Polyamorous
Album: Saturate
Tabbed by: Chad Hayes (cch5767)
Website: http://www.geocities.com/stilloctober/

Tuning: Drop D  1/2 step down




INTRO
Eb|---------------------------|       |-------------------------------|
Bb|---------------------------|       |-------------------------------|
Gb|4-4---4--------------------|Repeat |4-4---4------------------------|
Db|4-4---4-0-0---0-5-5---0-5-5|  2x   |4-4---4-0-0---0-5-5---0-5-4-0-4|
Ab|2-2---2-0-0---0-5-5---0-5-5|       |2-2---2-0-0---0-5-5---0-5-4-0-4|
Db|--------0-0---0-5-5---0-5-5|       |--------0-0---0-5-5---0-5-4-0-4|

Eb|----------------------------------|
Bb|----------------------------------|
Gb|----------------------------------|Repeat
Db|9--9-------------9--9-------------|  3x
Ab|9--9--10-10-9-9--9--9--12-12-10-10|
Db|9--9-------------9--9-------------|




VERSE
Eb|----------------------------|----------------------------|
Bb|----------------------------|----------------------------|
Gb|----------------------------|----------------------------|Repeat
Db|------5-5-4-4--------5-5-4-4|------4-4-5-5--------5-5-4-4|  2x
Ab|2--2------------------------|----------------------------|
Db|---------------4--4---------|5--5-----------2--2---------|

Eb|----------------------------|-----------------------|
Bb|----------------------------|-----------------------|
Gb|----------------------------|-----------------------|
Db|------5-5-4-4--------5-5-4-4|------4-4-5-5--------4/|
Ab|2--2------------------------|---------------------4/|
Db|---------------4--4---------|5--5-----------2--2--4/|




CHORUS
Eb|------------------|       |--------------|----------------|
Bb|------------------|       |--------------|----------------|
Gb|------------------|Repeat |--------------|----------------|
Db|0--7--5--0-5-4-0-4|       |0--7--5--xx--x|0--7--7--5-4-0-4|
Ab|0--7--5--0-5-4-0-4|       |0--7--5--xx--x|0--4--5--5-4-0-4|
Db|0--7--5--0-5-4-0-4|       |0--7--5--xx--x|0--4--5--5-4-0-4|




BRIDGE
Eb|-------|-------|-------|-------|
Bb|-------|-------|-------|-------|
Gb|4---6-7|-------|-------|-------|Repeat
Db|4---6-7|7---7-7|7---7-7|5---7-7|
Ab|2---4-5|4---5-4|5---5-4|2---5-4|
Db|-------|4---5-4|5---5-4|2---5-4|

Db|-------------------------------|-------------------------------|
Bb|-------------------------------|-------------------------------|
Gb|-------------------------------|-------------------------------|
Db|-------------------------------|-------------------------------|
Ab|2-2-2-2-2-2-2-2-4-4-4-4-5-5-5-5|-------------------------------|
Db|-------------------------------|4-4-4-4-4-4-4-4-5-5-5-5-4-4-4-4|

Eb|-------------------------------|-------------------------------|
Bb|-------------------------------|-------------------------------|
Gb|-------------------------------|-------------------------------|
Db|-------------------------------|-------------------------------|
Ab|-------------------------------|-------------------------------|
Db|5-5-5-5-5-5-5-5-5-5-5-5-4-4-4-4|2-2-2-2-2-2-2-2-5-5-5-5-4-4-4-4|

Eb|-------------------------------|-------------------------------|
Bb|-------------------------------|-------------------------------|
Gb|4-4-4-4-4-4-4-4-6-6-6-6-7-7-7-7|6-6-6-6-6-6-6-6-7-7-7-7-9-9-9-9|
Db|-------------------------------|-------------------------------|
Ab|2-2-2-2-2-2-2-2-4-4-4-4-5-5-5-5|4-4-4-4-4-4-4-4-5-5-5-5-7-7-7-7|
Db|-------------------------------|-------------------------------|

Eb|-------------------------------|-------------------------------|
Bb|-------------------------------|-------------------------------|
Gb|7-7-7-7-7-7-7-7-7-7-7-7-6-6-6-6|4-4-4-4-4-4-4-4-7-7-7-7-6-6-6-6|
Db|-------------------------------|-------------------------------|
Ab|5-5-5-5-5-5-5-5-5-5-5-5-4-4-4-4|2-2-2-2-2-2-2-2-5-5-5-5-4-4-4-4|
Db|-------------------------------|-------------------------------|

Eb|---------------------------|---------------|
Bb|---------------------------|---------------|
Gb|---------------------------|---------------|
Db|0--0--5-4-0-4-0--0--5-4-0-4|0--0--5-4-0-4-0|
Ab|0--0--5-4-0-4-0--0--5-4-0-4|0--0--5-4-0-4-0|
Db|0--0--5-4-0-4-0--0--5-4-0-4|0--0--5-4-0-4-0|




outro
Eb|--------------|----------------|
Bb|--------------|----------------|
Gb|--------------|----------------|Repeat
Db|0--7--7--xx--x|0--7--7--5-4-0-4|
Ab|0--4--5--xx--x|0--4--5--5-4-0-4|
Db|0--4--5--xx--x|0--4--5--5-4-0-4|

Eb|----------------------------------|-------------------|
Bb|----------------------------------|-------------------|
Gb|----------------------------------|-------------------|
Db|9--9-------------9--9-------------|9--9-------------9|
Ab|9--9-------------9--9-------------|9--9-------------9|
Db|9--9--10-10-9-9--9--9--12-12-10-10|9--9--10-10-9-9--9|




/  slide up
  slide down

Notes: I primarily only tab the main rhythm guitar & 
       I don't repeat parts so it's easy to find what 
       you want. Use your ear for timing and arrangement.


Текст, аккорды и табулатура для песни "Polyamorous", исполняет "Breaking Benjamin".
Используемые в песне аккорды можно найти в разделе Как брать аккорды. Аккорды для шестиструнной гитары. Другие песни можно найти на нашем сайте, воспользовавшись алфавитным указателем вверху страницы.


 
Ошибка в тексте? Выделите ошибку и нажмите Ctrl+Enter