Intro:
     G
e||--3--------3--------3------||
B||--3--------3--------3------||
G||*-4--5--4--4--5--4--4-----*|| - 4 раза
D||*-5--------5--------5-----*||
A||--5--------5--------5------||
E||--3--------3--------3------||

G F G F G

G
Брат, родимый, где наши рельсы,
Hm
Которые ведут домой
С
Длинные иглы, слюнявые рты
G
Снова напомнят не о той

А утро снова глупее чем вечер
О, Боже, как мне тебя не хватает
Когда в себя я вливаю вечность
Любовь отступает


Припев:

C            Em
Кто я тебе?
C            G
Кто я тебе?
Кто я тебе?
Кто я тебе?
G
Хочу домой...


Брат, родимый, пригнись - здесь низко
Рыдают тучи, да прямо в темя
Бросают снегом, в присыпку - солью
Кончают время

А волчья сырость вползает в душу
И как сберечься, чтоб не сорваться
И только ветер - свежак последний
Даст удержаться

Припев.

Соло:
    G                  Hm                       C            Em
e-----------------------------------------
B-----------------------------------------
G||---0--0h2--2/4----4-4-4p2-2-2------------0-4-5----5--4----/9---
D||-0-----------------------------2p0-----2-----------------------

  G                  Hm                       C            G
e---------------------------------------------------------------||
B---------------------------------------------------------------||
G---0--0h2--2/4----4-4-4p2-2-2------------0-4-5----5--4----/9---||
D-0-----------------------------2p0-----2-----------------------||


Припев.


Текст, аккорды и табулатура для песни "Кто я тебе?", исполняет "Братья Карамазовы".
Используемые в песне аккорды можно найти в разделе Как брать аккорды. Аккорды для шестиструнной гитары. Другие песни можно найти на нашем сайте, воспользовавшись алфавитным указателем вверху страницы.


 
Ошибка в тексте? Выделите ошибку и нажмите Ctrl+Enter