Intro :
e------------------------------------------|
B------------------------------------------|
G------------------------------------------|
D-----------------------5-5-5--------------|
A-7-7-7--7---5-5-5--5---3-3-3--5-----------|
E-5-5-5--5---3-3-3--3----------3-----------|


Verse 1
Guitar 1
e-----------------------------------------------------------------------|
B-----------------------------------------------------------------------|
G-----------------------------------------------------------------------|
D------------------------------5-5--------------------------------------|
A-7-7-----------5-5------------3-3------5-5---------7-7------5-5--------|
E-5-5-----------3-3---------------------3-3---------5-5------3-3--------|
"Welome To The Home of the Hillbilly..Land of Barbwire..whiskey

                  |

^PLAY THAT THROUGH ALL THE VERSES IT JUST REPEATS IT ITSELF^

Pre-Chorus :
e------------------------|
B------------------------|
G------------------------|
D-7~---5~----------------|
A-7~---5~----------------|
E-5~---3~----------------|
Chorus
The chorus is easy just play the same 4 power chords which were used in the verses and
pre-chorus (Am G C G)
these are the four chords you use below:
e--------------------------|
B--------------------------|
G--------5-----------------|
D-7---5--5--5--------------|
A-7---5--3--5--------------|
E-5---3-----3--------------|
Post Chorus
After The Chorus both guitars play the intro 1 time

Verse 2 is the same 4 power chords as verse 1.

Then the pre-chorus 1x . the chorus 1x. intro 1x
	
	
	        
Комментарий автора: Artist : Brantley Gilbert Song : Kick It In The Sticks Album : Halfway to Heaven Key - b bend x palm mute p pull off h hammer on UPDATED: 7/11/11 - After looking over this tab and listening to it again i've made some changes. I also figured out the chords for this song so if you want to Go check that out its on here. I changed pretty much everything b/c before it was in the wrong key. also, you can either play it in standard tuning or half-step down whichever sounds better to you.

Текст, аккорды и табулатура для песни "Kick It In The Sticks", исполняет "Brantley Gilbert".
Используемые в песне аккорды можно найти в разделе Как брать аккорды. Аккорды для шестиструнной гитары. Другие песни можно найти на нашем сайте, воспользовавшись алфавитным указателем вверху страницы.


Слушать онлайн Kick It in the Sticks (In the Style of Brantley Gilbert)


Ameritz Top TracksKick It in the Sticks (In the Style of Brantley Gilbert) на Яндекс.Музыке


 
Ошибка в тексте? Выделите ошибку и нажмите Ctrl+Enter