-------------------------------------------------------------------------------
			     The Shower Scene - Brand New
-------------------------------------------------------------------------------

Tabbed by: Kevin Borkman 	
Email: [email protected]

h - hammer on
/ = slide

Tuning: DADGBE dropped one and a half steps down so actually (C# Ab C# F# Bb Eb)

Intro/Verse: Gtr 1(Drum Roll Begins the song then...)
                                   pause 
e|---------------------------------------------------------------------------|
B|---------------------------------------------------------------------------|
G|---------------------------------------------------------------------------|
D|4-4-44400-00-0004-4-44400-00-000x-----4-44400-00-0002-2-222/55-55-555------|
A|4-4-44400-00-0004-4-44400-00-000x-----4-44400-00-0002-2-222/55-55-555------|
D|4-4-44400-00-0004-4-44400-00-000x-----4-44400-00-0002-2-222/55-55-555------|

Intro: Gtr 2 Same except for a little lead part something like...

e|---------------------------------------------------------------------------|
B|---------------------2h3h5-2h3h5-------------------------------------------|
G|---------------------------------------------------------------------------|
D|---------------------------------------------------------------------------|
A|---------------------------------------------------------------------------|
D|---------------------------------------------------------------------------|

Chorus1: Gtr 1 (Note: F is an accidental in the key of D)

e|---------------------------------------------------------------------------|
B|---------------------------------------------------------------------------|
G|---------------------------------------------------------------------------|
D|7------5--------7-------3--------------------------------------------------|
A|7------5--------7-------3--------------------------------------------------|
D|7------5--------7-------3--------------------------------------------------|

Chorus1: Gtr 2: Hard to tell exactly a lot of effects just a simple little riff like


e|---------5-----------------------------------------------------------------|
B|------2h3-2h3h5------------------------------------------------------------|
G|---------------------------------------------------------------------------|
D|---------------------------------------------------------------------------|
A|---------------------------------------------------------------------------|
D|---------------------------------------------------------------------------|
 

Repeat Intro/Verse except on the last G before chorus do three upstrokes

Chorus 2: Gtr 1
				{strum}   {PM with accent}  {strum}
e|---------------------------------------------------------------------------|
B|---------------------------------------------------------------------------|
G|---------------------------------------------------------------------------|
D|7-----5--------7--------3-----7----5----7----3----5----7----10-------------|
A|7-----5--------7--------3-----7----5----7----3----5----7----10-------------|
D|7-----5--------7--------3-----7----5----7----3----5----7----10-------------|



Interlude: Gtr1 and Gtr2
		Play PT1 twice then the xx part then play PT1 twice again
                      
(clean 6/4)  (roll) PT1{(6/4 count123412)(7/4 1234123)}      Gtr1 Gtr2  Both
e|---------------------------------------------------------------------------|
B|---------------------------------------------------------------------------|
G|--6-66----6---------------6-66----6----6-66--------------------------------|
D|4-6-66-00-6-------------4-6-66-00-6--4-6-66-00-4-0h4--xx----444-444---7-7--|
A|4-4-44-00-4-------------4-4-44-00-4--4-4-44-00-4-0h4--xx----444-444---7-7--|
D|4-4-44-00-4-------------4-4-44-00-4--4-4-44-00-4-0h4--xx----444-444---7-7--|

Outro Repeat 4x: Gtr1 similar to intro but hold each note 2x as long 
                         ( End on }
e|---------------------------------------------------------------------------|
B|---------------------------------------------------------------------------|
G|---------------------------------------------------------------------------|
D|4-------0--------------444-444-444/7---------------------------------------|
A|4-------0--------------444-444-444/7---------------------------------------|
D|4-------0--------------444-444-444/7---------------------------------------|

Outro 4x: Gtr2 Hard to tell exactly their are many layered parts here
              play around with it end on
e|---------------------------------------------------------------------------|
B|---------------------------------------------------------------------------|
G|66-11-1414-9-77777-----------------6---------------------------------------|
D|---------------------------------------------------------------------------|
A|44-9--1212-7-55555-----------------4---------------------------------------|
D|---------------------------------------------------------------------------|


Текст, аккорды и табулатура для песни "The Shower Scene", исполняет "Brand New".
Используемые в песне аккорды можно найти в разделе Как брать аккорды. Аккорды для шестиструнной гитары. Другие песни можно найти на нашем сайте, воспользовавшись алфавитным указателем вверху страницы.


 
Ошибка в тексте? Выделите ошибку и нажмите Ctrl+Enter