Artist: Brand New
Song: The Quiet Things That No One Ever knows
Album: Deja Entendu
Tabbed By: [email protected]


3h2 - Hammer on
8/5 - Slide
... - Palmmute

----
-5x-  - Mute
-3x-

~ - Let note ring

Tuning Eb Ab Db Gb Bb eb

Intro Part 1(Lead Guitar)
e|-------3h2-2~-------3h2-0~-------3h2-2~-------3h2-2--2h3-5--5-----|
b|-------------3~-----------3~-----------3~-------------------------|
g|------------------------------------------------------------------|
d|-----------------------------------------0~-----------------------|
a|-----------------------------3~-----------------------------------|
e|-----3~-----------0~----------------------------------------------|



Intro Part 2 (Lead Guitar)
e|-------------10------------------10------------------10------------------10------|
b|-----7-8-7-8----8-7-8----7-8-7-8----8-7-8----7-8-7-8----8-7-8----7-8-7-8----8-7-8|
g|---------------------------------------------------------------------------------|
d|---------------------------------------------------------------------------------|
a|---------------------------------------------------------------------------------|
e|---------------------------------------------------------------------------------|

e|------------15------------------------15---------------------10------------------10------|
b|12-13-12-13----13-12-12---12-13-12-13----13-12-12----7-8-7-8----8-7-8----7-8-7-8----8-7-8|
g|-----------------------------------------------------------------------------------------|
d|-----------------------------------------------------------------------------------------|
a|-----------------------------------------------------------------------------------------|
e|-----------------------------------------------------------------------------------------|

e|--------10------------------10----------------------15------------------------15---------|
b|7-8-7-8----8-7-8----7-8-7-8----8-7-8----12-13-12-13----13-12-12---12-13-12-13----13-12-12|
g|-----------------------------------------------------------------------------------------|
d|-----------------------------------------------------------------------------------------|
a|-----------------------------------------------------------------------------------------|
e|-----------------------------------------------------------------------------------------|

e|--------10------------------10----------------------15------------------------15---------|
b|7-8-7-8----8-7-8----7-8-7-8----8-7-8----12-13-12-13----13-12-12---12-13-12-13----13-12-12|
g|-----------------------------------------------------------------------------------------|
d|-----------------------------------------------------------------------------------------|
a|-----------------------------------------------------------------------------------------|
e|-----------------------------------------------------------------------------------------|



Intro Part 2 (Rythym Guitar)
e|----------------------------------------------------------------------|
b|----------------------------------------------------------------------|
g|----------------------------------------------------------------------|
d|----5-5-5-5-5-5-5-5-5-5-5-5-5-5-5-5--2-2-2-2-2-2-2-2-2-2-2-2-2-2-2-2--|
a|----5-5-5-5-5-5-5-5-5-5-5-5-5-5-5-5--2-2-2-2-2-2-2-2-2-2-2-2-2-2-2-2--|
e|----3-3-3-3-3-3-3-3-3-3-3-3-3-3-3-3--0-0-0-0-0-0-0-0-0-0-0-0-0-0-0-0--|

e|----------------------------------------------------------------------|
b|----------------------------------------------------------------------|
g|----5-5-5-5-5-5-5-5-5-5-5-5-5-5-5-5--7-7-7-7-7-7-7-7-7-7-7-7-7-7-7-7--|
d|----5-5-5-5-5-5-5-5-5-5-5-5-5-5-5-5--7-7-7-7-7-7-7-7-7-7-7-7-7-7-7-7--|
a|----3-3-3-3-3-3-3-3-3-3-3-3-3-3-3-3--5-5-5-5-5-5-5-5-5-5-5-5-5-5-5-5--|
e|----------------------------------------------------------------------|




Verse (Rythym Guitar) 
e|----------------------------------------------------------------------------|
b|----------------------------------------------------------------------------|
g|----------------------------------------------------------------------------|
d|-------------------------------------------5-5-5-5-5-5-5-5-5-5-5-5-5-5-5-5--|
a|--5-5x----5-5-5-5-5-5-5-5-5-5-5-5-5-5-5-5--3-3-3-3-3-3-3-3-3-3-3-3-3-3-3-3--|
e|--3-3x--8/3-3-3-3-3-3-3-3-3-3-3-3-3-3-3-3-----------------------------------|
            ...............................  ...............................
e|----------------------------------------------------------------------|
b|----------------------------------------------------------------------|
g|----------------------------------------------------------------------|
d|-------------------------------------5-5-5-5-5-5-5-5-5-5-5-5-5-5-5-5--|
a|----2-2-2-2-2-2-2-2-2-2-2-2-2-2-2-2--3-3-3-3-3-3-3-3-3-3-3-3-3-3-3-3--|
e|----0-0-0-0-0-0-0-0-0-0-0-0-0-0-0-0-----------------------------------|
      ...............................  ...............................


Verse (Lead Guitar)
e|--------------------|
b|--------------------|
g|-----12/11-11---7---| Listen for the parts to Jump in
d|------x-x---x---x---|
a|-----10/9---9---5---|
e|--------------------|



Chorus (Rythym)
e|----------------------------------------------------------------------|
b|----------------------------------------------------------------------|
g|----------------------------------------------------------------------|
d|----5-5-5-5-5-5-5-5-5-5-5-5-5-5-5-5--2-2-2-2-2-2-2-2-2-2-2-2-2-2-2-2--|
a|----5-5-5-5-5-5-5-5-5-5-5-5-5-5-5-5--2-2-2-2-2-2-2-2-2-2-2-2-2-2-2-2--|
e|----3-3-3-3-3-3-3-3-3-3-3-3-3-3-3-3--0-0-0-0-0-0-0-0-0-0-0-0-0-0-0-0--|

e|----------------------------------------------------------------------|
b|----------------------------------------------------------------------|
g|----5-5-5-5-5-5-5-5-5-5-5-5-5-5-5-5--7-7-7-7-7-7-7-7-7-7-7-7-7-7-7-7--|
d|----5-5-5-5-5-5-5-5-5-5-5-5-5-5-5-5--7-7-7-7-7-7-7-7-7-7-7-7-7-7-7-7--|
a|----3-3-3-3-3-3-3-3-3-3-3-3-3-3-3-3--5-5-5-5-5-5-5-5-5-5-5-5-5-5-5-5--|
e|----------------------------------------------------------------------|

Chorus (Lead)
e|-------------10------------------10------------------10------------------10------|
b|-----7-8-7-8----8-7-8----7-8-7-8----8-7-8----7-8-7-8----8-7-8----7-8-7-8----8-7-8|
g|---------------------------------------------------------------------------------|
d|---------------------------------------------------------------------------------|
a|---------------------------------------------------------------------------------|
e|---------------------------------------------------------------------------------|

e|-------------15------------------------15---------------------10------------------10-------|
b|-12-13-12-13----13-12-12---12-13-12-13----13-12-12----7-8-7-8----8-7-8----7-8-7-8----8-7-8-|
g|-------------------------------------------------------------------------------------------|
d|-------------------------------------------------------------------------------------------|
a|-------------------------------------------------------------------------------------------|
e|-------------------------------------------------------------------------------------------|

e|---------10------------------10----------------------15------------------------15----------|
b|-7-8-7-8----8-7-8----7-8-7-8----8-7-8----12-13-12-13----13-12-12---12-13-12-13----13-12-12-|
g|-------------------------------------------------------------------------------------------|
d|-------------------------------------------------------------------------------------------|
a|-------------------------------------------------------------------------------------------|
e|-------------------------------------------------------------------------------------------|

e|---------10------------------10----------------------15------------------------15----------|
b|-7-8-7-8----8-7-8----7-8-7-8----8-7-8----12-13-12-13----13-12-12---12-13-12-13----13-12-12-|
g|-------------------------------------------------------------------------------------------|
d|-------------------------------------------------------------------------------------------|
a|-------------------------------------------------------------------------------------------|
e|-------------------------------------------------------------------------------------------|


Bridge Part 1 (Lead)
e|-------3h2-2~-------3h2-0~-------3h2-2~-------3h2-2--2h3-5--5-----|
b|-------------3~-----------3~-----------3~-------------------------|
g|------------------------------------------------------------------| Play x4
d|-----------------------------------------0~-----------------------|
a|-----------------------------3~-----------------------------------|
e|-----3~-----------0~----------------------------------------------|

Bridge Part 2 (Lead)
e|-------------10------------------10------------------10------------------10------|
b|-----7-8-7-8----8-7-8----7-8-7-8----8-7-8----7-8-7-8----8-7-8----7-8-7-8----8-7-8|
g|---------------------------------------------------------------------------------|
d|---------------------------------------------------------------------------------|
a|---------------------------------------------------------------------------------|
e|---------------------------------------------------------------------------------|

e|------------15------------------------15---------------------10------------------10-------|
b|12-13-12-13----13-12-12---12-13-12-13----13-12-12----7-8-7-8----8-7-8----7-8-7-8----8-7-8-|
g|------------------------------------------------------------------------------------------|
d|------------------------------------------------------------------------------------------|
a|------------------------------------------------------------------------------------------|
e|------------------------------------------------------------------------------------------|

e|---------10------------------10----------------------15------------------------15----------|
b|-7-8-7-8----8-7-8----7-8-7-8----8-7-8----12-13-12-13----13-12-12---12-13-12-13----13-12-12-|
g|-------------------------------------------------------------------------------------------|
d|-------------------------------------------------------------------------------------------|
a|-------------------------------------------------------------------------------------------|
e|-------------------------------------------------------------------------------------------|

e|---------10------------------10----------------------15------------------------15----------|
b|-7-8-7-8----8-7-8----7-8-7-8----8-7-8----12-13-12-13----13-12-12---12-13-12-13----13-12-12-|
g|-------------------------------------------------------------------------------------------|
d|-------------------------------------------------------------------------------------------|
a|-------------------------------------------------------------------------------------------|
e|-------------------------------------------------------------------------------------------|

Bridge Part 1 (Rythym)
e|-------------------------|
b|-------------------------|
g|----------------5~----7~-| Play x2
d|----5~----2~----5~----7~-|  then
a|----5~----2~----3~----5~-|
e|----3~----0~-------------|

e|------------------------------------------------------------------| ---
b|------------------------------------------------------------------|     
g|------------------------------------------------------------------|      
d|-5-5-5-5-5-5-5-5-5-5-5-5-5-5-5-5--2-2-2-2-2-2-2-2-2-2-2-2-2-2-2-2-|       
a|-5-5-5-5-5-5-5-5-5-5-5-5-5-5-5-5--2-2-2-2-2-2-2-2-2-2-2-2-2-2-2-2-|        
e|-3-3-3-3-3-3-3-3-3-3-3-3-3-3-3-3--0-0-0-0-0-0-0-0-0-0-0-0-0-0-0-0-|         
   ...............................  ...............................            _Play this
                                                                               /  x 2 then
e|------------------------------------------------------------------|         /
b|------------------------------------------------------------------|        /
g|-5-5-5-5-5-5-5-5-5-5-5-5-5-5-5-5--7-7-7-7-7-7-7-7-7-7-7-7-7-7-7-7-|       /
d|-5-5-5-5-5-5-5-5-5-5-5-5-5-5-5-5--7-7-7-7-7-7-7-7-7-7-7-7-7-7-7-7-|      /
a|-3-3-3-3-3-3-3-3-3-3-3-3-3-3-3-3--5-5-5-5-5-5-5-5-5-5-5-5-5-5-5-5-|     /
e|------------------------------------------------------------------| ---/
   ...............................  ...............................

Bridge Part 2 (Rythym)
e|----------------------------------------------------------------------|
b|----------------------------------------------------------------------|
g|----------------------------------------------------------------------|
d|----5-5-5-5-5-5-5-5-5-5-5-5-5-5-5-5--2-2-2-2-2-2-2-2-2-2-2-2-2-2-2-2--|
a|----5-5-5-5-5-5-5-5-5-5-5-5-5-5-5-5--2-2-2-2-2-2-2-2-2-2-2-2-2-2-2-2--|
e|----3-3-3-3-3-3-3-3-3-3-3-3-3-3-3-3--0-0-0-0-0-0-0-0-0-0-0-0-0-0-0-0--|

e|----------------------------------------------------------------------|
b|----------------------------------------------------------------------|
g|----5-5-5-5-5-5-5-5-5-5-5-5-5-5-5-5--7-7-7-7-7-7-7-7-7-7-7-7-7-7-7-7--|
d|----5-5-5-5-5-5-5-5-5-5-5-5-5-5-5-5--7-7-7-7-7-7-7-7-7-7-7-7-7-7-7-7--|
a|----3-3-3-3-3-3-3-3-3-3-3-3-3-3-3-3--5-5-5-5-5-5-5-5-5-5-5-5-5-5-5-5--|
e|----------------------------------------------------------------------|

Email me at [email protected]


Текст, аккорды и табулатура для песни "The Quiet Things That No One Ever Knows", исполняет "Brand New".
Используемые в песне аккорды можно найти в разделе Как брать аккорды. Аккорды для шестиструнной гитары. Другие песни можно найти на нашем сайте, воспользовавшись алфавитным указателем вверху страницы.


 
Ошибка в тексте? Выделите ошибку и нажмите Ctrl+Enter