*********************************************************************
      The Quiet Things That No One Ever Knows - Brand New
*********************************************************************
good song, other tabs are a bit off with tuning and such
every single brand new song is played down half a step, ive tabbed their songs
in standard tuning, but when i saw them live, it was still down half step, 
even tho it didnt need to be, I saw thwm august 2nd in T.O., is this is what he 
appeared to be palying

tuning ( Eb Ab Db Gb )

INTROx2 ending x1
Gb|------------------------------------------------|----------------|
Db|------------------------------------------------|----------------|
Ab|------------------------333333333-5555555555----|-----10/--------|
Eb|-33333333333-0000000000-------------------------|---33-----------|

VERSEx2
Gb|-----------------------------------------------------------------|
Db|-----------------------------------------------------------------|
Ab|-----------333333333---------3333333333--------------------------|
Eb|-3333333333---------000000000------------------------------------|

CHORUS
Gb|-----------------------------------------------------------------|
Db|-----------------------------------------------------------------|
Ab|---------------------333333333-5555555555------------------------|
Eb|-3333333333-000000000--------------------------------------------|

-VERSE AGAIN-

2nd CHORUS(this is what i saw, in the video too soo)x2
Gb|-----------------------------------------------------|------------|
Db|-----------------------------------------------------|------------|
Ab|-------------------191919171716-33333333-55555555----|------------|
Eb|-33333333333-0~-000-0-0-0-0-0-0----------------------|-----3~-----|

BRIDGE pt 1x3
Gb|-----------------------------------------------------------------|
Db|-----------------------------------------------------------------|
Ab|------------------------333333333-5555555555---------------------|
Eb|-33333333333-0000000000------------------------------------------|
pt 2 x1
Gb|-----------------------------------------------------------------|
Db|-----------------------------------------------------------------|
Ab|------------------3333333333-555555555---------------------------|
Eb|-333x-3/-000000000-----------------------------------------------|

-2nd Chorus-

end on
Gb|----|
Db|----|
Ab|----|
Eb|-3~-|


Текст, аккорды и табулатура для песни "The Quiet Things That No One Ever Knows", исполняет "Brand New".
Используемые в песне аккорды можно найти в разделе Как брать аккорды. Аккорды для шестиструнной гитары. Другие песни можно найти на нашем сайте, воспользовавшись алфавитным указателем вверху страницы.


 
Ошибка в тексте? Выделите ошибку и нажмите Ctrl+Enter