x=mute
~=let ring
..=palm mute
/=slide
h=hit(don't strum)

Tuning D A D G B E

Intro Part 1(Rhythm Guitar)
E|------------------------------------------------------------------|
B|------------------------------------------------------------------|
G|------------------------------------------------------------------|
D|------------------------------------------------------------------|
A|-----------------------------2~----------4~-----------------------|
D|-----4~-----------1~----------------------------------------------|
Intro Part 1(Lead Guitar: play after each note by Rhythm)
E|------------------------------------------------------------------|
B|---7h6-6--------7h6--------7h6-6--------7h6-6-7/9 9---------------|
G|------6-6----------6-8-6------6-6----------6-6--------------------|
D|------------------------------------------------------------------|
A|------------------------------------------------------------------|
D|------------------------------------------------------------------|

Intro Part 2 (Rythym Guitar)x2
E|----------------------------------------------------------------------|
B|----------------------------------------------------------------------|
G|----------------------------------------------------------------------|
D|----4-4-4-4-4-4-4-4-4-4-4-4-4-4-4-4--1-1-1-1-1-1-1-1-1-1-1-1-1-1-1-1--|
A|----4-4-4-4-4-4-4-4-4-4-4-4-4-4-4-4--1-1-1-1-1-1-1-1-1-1-1-1-1-1-1-1--|
D|----4-4-4-4-4-4-4-4-4-4-4-4-4-4-4-4--1-1-1-1-1-1-1-1-1-1-1-1-1-1-1-1--|

E|----------------------------------------------------------------------|
B|----------------------------------------------------------------------|
G|----4-4-4-4-4-4-4-4-4-4-4-4-4-4-4-4--6-6-6-6-6-6-6-6-6-6-6-6-6-6-6-6--|
D|----4-4-4-4-4-4-4-4-4-4-4-4-4-4-4-4--6-6-6-6-6-6-6-6-6-6-6-6-6-6-6-6--|
A|----2-2-2-2-2-2-2-2-2-2-2-2-2-2-2-2--4-4-4-4-4-4-4-4-4-4-4-4-4-4-4-4--|
D|----------------------------------------------------------------------|

Intro Part 2 (Lead Guitar)
E|-------------9----------------9----------------9----------------9------|
B|-----6-7-6-7---7-6-7--6-7-6-7---7-6-7--6-7-6-7---7-6-7--6-7-6-7---7-6-7|
G|-----------------------------------------------------------------------|
D|-----------------------------------------------------------------------|
A|-----------------------------------------------------------------------|
D|-----------------------------------------------------------------------|

E|-------------14----------------------14--------------------------------|
B|--11-12-11-12---12-11-12--11-12-11-12---12-11-12-----------------------|
G|-----------------------------------------------------------------------|
D|-----------------------------------------------------------------------|
A|-----------------------------------------------------------------------|
D|-----------------------------------------------------------------------|

E|-------------9----------------9----------------9----------------9------|
B|-----6-7-6-7---7-6-7--6-7-6-7---7-6-7--6-7-6-7---7-6-7--6-7-6-7---7-6-7|
G|-----------------------------------------------------------------------|
D|-----------------------------------------------------------------------|
A|-----------------------------------------------------------------------|
D|-----------------------------------------------------------------------|

E|-------------14----------------------14--------------------------------|
B|--11-12-11-12---12-11-12--11-12-11-12---12-11-12-----------------------|
G|-----------------------------------------------------------------------|
D|-----------------------------------------------------------------------|
A|-----------------------------------------------------------------------|
D|-----------------------------------------------------------------------|

E|-------------9----------------9----------------------------------------|
B|-----6-7-6-7---7-6-7--6-7-6-7---7-6-7----------------------------------|
G|-----------------------------------------------------------------------|
D|-----------------------------------------------------------------------|
A|-----------------------------------------------------------------------|
D|-----------------------------------------------------------------------|

E|-------------14----------------------14--------------------------------|
B|--11-12-11-12---12-11-12--11-12-11-12---12-11-12-----------------------|
G|-----------------------------------------------------------------------|
D|-----------------------------------------------------------------------|
A|-----------------------------------------------------------------------|
D|-----------------------------------------------------------------------|

Verse (Rythym Guitar)x2(Lead Guitar: 1st time only)
E|-------------------------------------------------------------------------|
B|-------------------------------------------------------------------------|
G|----------------------------------------4-4-4-4-4-4-4-4-4-4-4-4-4-4-4-4--|
D|-------4-4-4-4-4-4-4-4-4-4-4-4-4-4-4-4--4-4-4-4-4-4-4-4-4-4-4-4-4-4-4-4--|
A|4-4x---4-4-4-4-4-4-4-4-4-4-4-4-4-4-4-4--2-2-2-2-2-2-2-2-2-2-2-2-2-2-2-2--|
D|4-4x-9/4-4-4-4-4-4-4-4-4-4-4-4-4-4-4-4-----------------------------------|
         ...............................  ...............................
E|----------------------------------------------------------------------|
B|----------------------------------------------------------------------|
G|-------------------------------------4-4-4-4-4-4-4-4-4-4-4-4-4-4-4-4--|
D|----1-1-1-1-1-1-1-1-1-1-1-1-1-1-1-1--4-4-4-4-4-4-4-4-4-4-4-4-4-4-4-4--|
A|----1-1-1-1-1-1-1-1-1-1-1-1-1-1-1-1--2-2-2-2-2-2-2-2-2-2-2-2-2-2-2-2--|
D|----1-1-1-1-1-1-1-1-1-1-1-1-1-1-1-1-----------------------------------|
      ...............................  ...............................

Verse (Lead Guitar: 2nd time only)
E|--------------------|
B|--------------------|
G|-----12/11-11---7---| Listen for the parts to Jump in
D|------x-x---x---x---|
A|-----10/9---9---5---|
D|--------------------|

Chorus (Rythym Guitar)x2
E|----------------------------------------------------------------------|
B|----------------------------------------------------------------------|
G|----------------------------------------------------------------------|
D|----4-4-4-4-4-4-4-4-4-4-4-4-4-4-4-4--1-1-1-1-1-1-1-1-1-1-1-1-1-1-1-1--|
A|----4-4-4-4-4-4-4-4-4-4-4-4-4-4-4-4--1-1-1-1-1-1-1-1-1-1-1-1-1-1-1-1--|
D|----4-4-4-4-4-4-4-4-4-4-4-4-4-4-4-4--1-1-1-1-1-1-1-1-1-1-1-1-1-1-1-1--|

E|----------------------------------------------------------------------|
B|----------------------------------------------------------------------|
G|----4-4-4-4-4-4-4-4-4-4-4-4-4-4-4-4--6-6-6-6-6-6-6-6-6-6-6-6-6-6-6-6--|
D|----4-4-4-4-4-4-4-4-4-4-4-4-4-4-4-4--6-6-6-6-6-6-6-6-6-6-6-6-6-6-6-6--|
A|----2-2-2-2-2-2-2-2-2-2-2-2-2-2-2-2--4-4-4-4-4-4-4-4-4-4-4-4-4-4-4-4--|
D|----------------------------------------------------------------------|

Chorus (Lead Guitar)
E|-------------9----------------9----------------9----------------9------|
B|-----6-7-6-7---7-6-7--6-7-6-7---7-6-7--6-7-6-7---7-6-7--6-7-6-7---7-6-7|
G|-----------------------------------------------------------------------|
D|-----------------------------------------------------------------------|
A|-----------------------------------------------------------------------|
D|-----------------------------------------------------------------------|

E|-------------14----------------------14--------------------------------|
B|--11-12-11-12---12-11-12--11-12-11-12---12-11-12-----------------------|
G|-----------------------------------------------------------------------|
D|-----------------------------------------------------------------------|
A|-----------------------------------------------------------------------|
D|-----------------------------------------------------------------------|

E|-------------9----------------9----------------9----------------9------|
B|-----6-7-6-7---7-6-7--6-7-6-7---7-6-7--6-7-6-7---7-6-7--6-7-6-7---7-6-7|
G|-----------------------------------------------------------------------|
D|-----------------------------------------------------------------------|
A|-----------------------------------------------------------------------|
D|-----------------------------------------------------------------------|

E|-------------14----------------------14--------------------------------|
B|--11-12-11-12---12-11-12--11-12-11-12---12-11-12-----------------------|
G|-----------------------------------------------------------------------|
D|-----------------------------------------------------------------------|
A|-----------------------------------------------------------------------|
D|-----------------------------------------------------------------------|

E|-------------9----------------9----------------------------------------|
B|-----6-7-6-7---7-6-7--6-7-6-7---7-6-7----------------------------------|
G|-----------------------------------------------------------------------|
D|-----------------------------------------------------------------------|
A|-----------------------------------------------------------------------|
D|-----------------------------------------------------------------------|

E|-------------14----------------------14--------------------------------|
B|--11-12-11-12---12-11-12--11-12-11-12---12-11-12-----------------------|
G|-----------------------------------------------------------------------|
D|-----------------------------------------------------------------------|
A|-----------------------------------------------------------------------|
D|-----------------------------------------------------------------------|

Verse (Rythym Guitar)x2(Lead Guitar: 1st time only)
E|-------------------------------------------------------------------------|
B|-------------------------------------------------------------------------|
G|----------------------------------------4-4-4-4-4-4-4-4-4-4-4-4-4-4-4-4--|
D|-------4-4-4-4-4-4-4-4-4-4-4-4-4-4-4-4--4-4-4-4-4-4-4-4-4-4-4-4-4-4-4-4--|
A|4-4x---4-4-4-4-4-4-4-4-4-4-4-4-4-4-4-4--2-2-2-2-2-2-2-2-2-2-2-2-2-2-2-2--|
D|4-4x-9/4-4-4-4-4-4-4-4-4-4-4-4-4-4-4-4-----------------------------------|
         ...............................  ...............................
E|----------------------------------------------------------------------|
B|----------------------------------------------------------------------|
G|-------------------------------------4-4-4-4-4-4-4-4-4-4-4-4-4-4-4-4--|
D|----1-1-1-1-1-1-1-1-1-1-1-1-1-1-1-1--4-4-4-4-4-4-4-4-4-4-4-4-4-4-4-4--|
A|----1-1-1-1-1-1-1-1-1-1-1-1-1-1-1-1--2-2-2-2-2-2-2-2-2-2-2-2-2-2-2-2--|
D|----1-1-1-1-1-1-1-1-1-1-1-1-1-1-1-1-----------------------------------|
      ...............................  ...............................

Verse (Lead Guitar: 2nd time only)
E|--------------------|
B|--------------------|
G|-----12/11-11---7---| Listen for the parts to Jump in
D|------x-x---x---x---|
A|-----10/9---9---5---|
D|--------------------|

Chorus (Rythym Guitar)x2
E|----------------------------------------------------------------------|
B|----------------------------------------------------------------------|
G|----------------------------------------------------------------------|
D|----4-4-4-4-4-4-4-4-4-4-4-4-4-4-4-4--1-1-1-1-1-1-1-1-1-1-1-1-1-1-1-1--|
A|----4-4-4-4-4-4-4-4-4-4-4-4-4-4-4-4--1-1-1-1-1-1-1-1-1-1-1-1-1-1-1-1--|
D|----4-4-4-4-4-4-4-4-4-4-4-4-4-4-4-4--1-1-1-1-1-1-1-1-1-1-1-1-1-1-1-1--|

E|----------------------------------------------------------------------|
B|----------------------------------------------------------------------|
G|----4-4-4-4-4-4-4-4-4-4-4-4-4-4-4-4--6-6-6-6-6-6-6-6-6-6-6-6-6-6-6-6--|
D|----4-4-4-4-4-4-4-4-4-4-4-4-4-4-4-4--6-6-6-6-6-6-6-6-6-6-6-6-6-6-6-6--|
A|----2-2-2-2-2-2-2-2-2-2-2-2-2-2-2-2--4-4-4-4-4-4-4-4-4-4-4-4-4-4-4-4--|
D|----------------------------------------------------------------------|

Chorus (Lead Guitar)
E|-------------9----------------9----------------9----------------9------|
B|-----6-7-6-7---7-6-7--6-7-6-7---7-6-7--6-7-6-7---7-6-7--6-7-6-7---7-6-7|
G|-----------------------------------------------------------------------|
D|-----------------------------------------------------------------------|
A|-----------------------------------------------------------------------|
D|-----------------------------------------------------------------------|

E|-------------14----------------------14--------------------------------|
B|--11-12-11-12---12-11-12--11-12-11-12---12-11-12-----------------------|
G|-----------------------------------------------------------------------|
D|-----------------------------------------------------------------------|
A|-----------------------------------------------------------------------|
D|-----------------------------------------------------------------------|

E|-------------9----------------9----------------9----------------9------|
B|-----6-7-6-7---7-6-7--6-7-6-7---7-6-7--6-7-6-7---7-6-7--6-7-6-7---7-6-7|
G|-----------------------------------------------------------------------|
D|-----------------------------------------------------------------------|
A|-----------------------------------------------------------------------|
D|-----------------------------------------------------------------------|

E|-------------14----------------------14--------------------------------|
B|--11-12-11-12---12-11-12--11-12-11-12---12-11-12-----------------------|
G|-----------------------------------------------------------------------|
D|-----------------------------------------------------------------------|
A|-----------------------------------------------------------------------|
D|-----------------------------------------------------------------------|

E|-------------9----------------9----------------------------------------|
B|-----6-7-6-7---7-6-7--6-7-6-7---7-6-7----------------------------------|
G|-----------------------------------------------------------------------|
D|-----------------------------------------------------------------------|
A|-----------------------------------------------------------------------|
D|-----------------------------------------------------------------------|

E|-------------14----------------------14--------------------------------|
B|--11-12-11-12---12-11-12--11-12-11-12---12-11-12-----------------------|
G|-----------------------------------------------------------------------|
D|-----------------------------------------------------------------------|
A|-----------------------------------------------------------------------|
D|-----------------------------------------------------------------------|

Bridge Part 1 (Rhythm Guitar)x2
E|------------------------------------------------------------------|
B|------------------------------------------------------------------|
G|------------------------------------------------------------------|
D|------------------------------------------------------------------|
A|-----------------------------2~----------4~-----------------------|
D|-----4~-----------1~----------------------------------------------|

Bridge Part 1 Continued (Rhythm Guitar)x2
E|----------------------------------------------------------------------|
B|----------------------------------------------------------------------|
G|----------------------------------------------------------------------|
D|----4-4-4-4-4-4-4-4-4-4-4-4-4-4-4-4--1-1-1-1-1-1-1-1-1-1-1-1-1-1-1-1--|
A|----4-4-4-4-4-4-4-4-4-4-4-4-4-4-4-4--1-1-1-1-1-1-1-1-1-1-1-1-1-1-1-1--|
D|----4-4-4-4-4-4-4-4-4-4-4-4-4-4-4-4--1-1-1-1-1-1-1-1-1-1-1-1-1-1-1-1--|
      ...............................  ...............................
E|----------------------------------------------------------------------|
B|----------------------------------------------------------------------|
G|----4-4-4-4-4-4-4-4-4-4-4-4-4-4-4-4--6-6-6-6-6-6-6-6-6-6-6-6-6-6-6-6--|
D|----4-4-4-4-4-4-4-4-4-4-4-4-4-4-4-4--6-6-6-6-6-6-6-6-6-6-6-6-6-6-6-6--|
A|----2-2-2-2-2-2-2-2-2-2-2-2-2-2-2-2--4-4-4-4-4-4-4-4-4-4-4-4-4-4-4-4--|
D|----------------------------------------------------------------------|
      ...............................  ...............................

Bridge Part 1 (Lead Guitar: Play after each note by Rhythm)x4
E|------------------------------------------------------------------|
B|---7h6-6--------7h6--------7h6-6--------7h6-6-7/9 9---------------|
G|------6-6----------6-8-6------6-6----------6-6--------------------|
D|------------------------------------------------------------------|
A|------------------------------------------------------------------|
D|------------------------------------------------------------------|

Bridge Part 2 (Rhythm Guitar: Pause 2nd time when necessary)x2
E|----------------------------------------------------------------------|
B|----------------------------------------------------------------------|
G|----------------------------------------------------------------------|
D|----4-4-4-4-4-4-4-4-4-4-4-4-4-4-4-4--1-1-1-1-1-1-1-1-1-1-1-1-1-1-1-1--|
A|----4-4-4-4-4-4-4-4-4-4-4-4-4-4-4-4--1-1-1-1-1-1-1-1-1-1-1-1-1-1-1-1--|
D|----4-4-4-4-4-4-4-4-4-4-4-4-4-4-4-4--1-1-1-1-1-1-1-1-1-1-1-1-1-1-1-1--|
 
E|----------------------------------------------------------------------|
B|----------------------------------------------------------------------|
G|----4-4-4-4-4-4-4-4-4-4-4-4-4-4-4-4--6-6-6-6-6-6-6-6-6-6-6-6-6-6-6-6--|
D|----4-4-4-4-4-4-4-4-4-4-4-4-4-4-4-4--6-6-6-6-6-6-6-6-6-6-6-6-6-6-6-6--|
A|----2-2-2-2-2-2-2-2-2-2-2-2-2-2-2-2--4-4-4-4-4-4-4-4-4-4-4-4-4-4-4-4--|
D|----------------------------------------------------------------------|
 
Bridge Part 2 (Lead Guitar)
E|-------------9----------------9----------------9----------------9------|
B|-----6-7-6-7---7-6-7--6-7-6-7---7-6-7--6-7-6-7---7-6-7--6-7-6-7---7-6-7|
G|-----------------------------------------------------------------------|
D|-----------------------------------------------------------------------|
A|-----------------------------------------------------------------------|
D|-----------------------------------------------------------------------|

E|-------------14----------------------14--------------------------------|
B|--11-12-11-12---12-11-12--11-12-11-12---12-11-12-----------------------|
G|-----------------------------------------------------------------------|
D|-----------------------------------------------------------------------|
A|-----------------------------------------------------------------------|
D|-----------------------------------------------------------------------|

E|-------------9----------------9----------------9------P-A-U-S-E--------|
B|-----6-7-6-7---7-6-7--6-7-6-7---7-6-7--6-7-6-7--------P-A-U-S-E--------|
G|-----------------------------------------------------------------------|
D|-----------------------------------------------------------------------|
A|-----------------------------------------------------------------------|
D|-----------------------------------------------------------------------|

E|-------------14----------------------14--------------------------------|
B|--11-12-11-12---12-11-12--11-12-11-12---12-11-12-----------------------|
G|-----------------------------------------------------------------------|
D|-----------------------------------------------------------------------|
A|-----------------------------------------------------------------------|
D|-----------------------------------------------------------------------|

E|-----------9---------9------------14------------14---------------------|
B|-----6-7-6-----6-7-6-----11-12-11------11-12-11------------------------|
G|-----------------------------------------------------------------------|
D|-----------------------------------------------------------------------|
A|-----------------------------------------------------------------------|
D|-----------------------------------------------------------------------|

Chorus (Rythym Guitar)x2
E|----------------------------------------------------------------------|
B|----------------------------------------------------------------------|
G|----------------------------------------------------------------------|
D|----4-4-4-4-4-4-4-4-4-4-4-4-4-4-4-4--1-1-1-1-1-1-1-1-1-1-1-1-1-1-1-1--|
A|----4-4-4-4-4-4-4-4-4-4-4-4-4-4-4-4--1-1-1-1-1-1-1-1-1-1-1-1-1-1-1-1--|
D|----4-4-4-4-4-4-4-4-4-4-4-4-4-4-4-4--1-1-1-1-1-1-1-1-1-1-1-1-1-1-1-1--|

E|----------------------------------------------------------------------|
B|----------------------------------------------------------------------|
G|----4-4-4-4-4-4-4-4-4-4-4-4-4-4-4-4--6-6-6-6-6-6-6-6-6-6-6-6-6-6-6-6--|
D|----4-4-4-4-4-4-4-4-4-4-4-4-4-4-4-4--6-6-6-6-6-6-6-6-6-6-6-6-6-6-6-6--|
A|----2-2-2-2-2-2-2-2-2-2-2-2-2-2-2-2--4-4-4-4-4-4-4-4-4-4-4-4-4-4-4-4--|
D|----------------------------------------------------------------------|

Chorus (Lead Guitar)
E|-------------9----------------9----------------9----------------9------|
B|-----6-7-6-7---7-6-7--6-7-6-7---7-6-7--6-7-6-7---7-6-7--6-7-6-7---7-6-7|
G|-----------------------------------------------------------------------|
D|-----------------------------------------------------------------------|
A|-----------------------------------------------------------------------|
D|-----------------------------------------------------------------------|

E|-------------14----------------------14--------------------------------|
B|--11-12-11-12---12-11-12--11-12-11-12---12-11-12-----------------------|
G|-----------------------------------------------------------------------|
D|-----------------------------------------------------------------------|
A|-----------------------------------------------------------------------|
D|-----------------------------------------------------------------------|

E|-------------9----------------9----------------9----------------9------|
B|-----6-7-6-7---7-6-7--6-7-6-7---7-6-7--6-7-6-7---7-6-7--6-7-6-7---7-6-7|
G|-----------------------------------------------------------------------|
D|-----------------------------------------------------------------------|
A|-----------------------------------------------------------------------|
D|-----------------------------------------------------------------------|

E|-------------14----------------------14--------------------------------|
B|--11-12-11-12---12-11-12--11-12-11-12---12-11-12-----------------------|
G|-----------------------------------------------------------------------|
D|-----------------------------------------------------------------------|
A|-----------------------------------------------------------------------|
D|-----------------------------------------------------------------------|

E|-------------9----------------9----------------------------------------|
B|-----6-7-6-7---7-6-7--6-7-6-7---7-6-7----------------------------------|
G|-----------------------------------------------------------------------|
D|-----------------------------------------------------------------------|
A|-----------------------------------------------------------------------|
D|-----------------------------------------------------------------------|

E|-------------14----------------------14--------------------------------|
B|--11-12-11-12---12-11-12--11-12-11-12---12-11-12-----------------------|
G|-----------------------------------------------------------------------|
D|-----------------------------------------------------------------------|
A|-----------------------------------------------------------------------|
D|-----------------------------------------------------------------------|

THE END

([email protected])


Текст, аккорды и табулатура для песни "The Quiet Things That No One Ever Knows", исполняет "Brand New".
Используемые в песне аккорды можно найти в разделе Как брать аккорды. Аккорды для шестиструнной гитары. Другие песни можно найти на нашем сайте, воспользовавшись алфавитным указателем вверху страницы.


 
Ошибка в тексте? Выделите ошибку и нажмите Ctrl+Enter