This Is the Absolute Correct Way To PLay this Song

INTRO:
--3p2--3p2--3p2---3p2/5-2
------2---2----2---------
-------------------------
----------------0--------
-----------3-------------
-3---0-------------------
(play once Clean)

MAIN RIFF:
Guitar 1
------------------------------------------------------
------------------------------------------------------
---------------------------5555555555555-7777777777777
-555555555555-222222222222-5555555555555-7777777777777
-555555555555-222222222222-3333333333333-5555555555555
-333333333333-000000000000----------------------------
(play 2 times)

MAIN RIFF:
Guitar 2
-----------------------------------------------------
------------15-----------15-----------15-----------15
-11-12-11-12--11-12-11-12--11-12-11-12--11-12-11-12--
-----------------------------------------------------
-----------------------------------------------------
-----------------------------------------------------
(guitar 2 cont.)
------------15-----------------15---------------------------------------
-12-13-12-13--12-13-12-13-12-13-------------------15------------------15
---------------------------------11-12-11-12-11-12---11-12-11-12-11-12--
------------------------------------------------------------------------
------------------------------------------------------------------------
------------------------------------------------------------------------

Verse:
-------------------------------------------------------
-------------------------------------------------------
-------------------------------------------------------
--------------------33333333333-------------33333333333
-3-3----*3333333333-55555555555-22222222222-55555555555
-5-5--8/*5555555555-------------00000000000------------
       *palm mute

Chorus: Same as Main Riff for guitar 1 and 2

Verse:
--------------------------------------------------------
--------------------------------------------------------
--------------------------------------------------------
--------------------33333333333--------------33333333333
-3-3----*3333333333-55555555555-222222222222-55555555555
-5-5--8/*5555555555-------------000000000000------------


BRIDGE:
(light Distortion)
--3p2--3p2--3p2---3p2/5-2--3p2--3p2--3p2---3p2/5-2
------2---2----2---------------2---2----2---------
--------------------------------------------------
----------------0------------------------0--------
-----------3------------------------3-------------
-3---0--------------------3---0-------------------
(play 2 times)

play main riff untill the end, listen for the pause.
The End
Enjoy

Any questions or comments email Brian @ [email protected]


Текст, аккорды и табулатура для песни "The Quiet Things That No One Ever Knows", исполняет "Brand New".
Используемые в песне аккорды можно найти в разделе Как брать аккорды. Аккорды для шестиструнной гитары. Другие песни можно найти на нашем сайте, воспользовавшись алфавитным указателем вверху страницы.


 
Ошибка в тексте? Выделите ошибку и нажмите Ctrl+Enter