-----------------------------------------------------------------------------
	THE QUIET THINGS THAT NO ONE EVER KNOWS - Brand New
-----------------------------------------------------------------------------
Tabbed by:pinkcleo67
Email:[email protected]

Tuning:all strings flat

this is how my guitar teacher taught me to play the song and it 
works well with my band so i'm pretty sure it's correct.

intro: guitar 1
e|----3p2----2------3p2---0-------3p2---2-------3p2---2---3h5---|
B|---------3---3--------3---3---------3---3---------3---3-------|   
G|--------------------------------------------------------------|  
D|-------------------------------------------0------------------|  
A|-----------------------------3--------------------------------|  
E|--3-------------0---------------------------------------------|
 it works well if you use your thumb to play the bass notes on 
 the E & A strings.

chorus: guitar 1
e|-------------7h8-(8x)-----|    i think Brand New uses
B|--7h8-(8x)----------------|    some type of whammy thing 
G|--------------------------|8x  here cuz it makes that
D|--------------------------|    WOoooWOooo sound.
A|--------------------------|
E|--------------------------|

chorus: guitar 2
e|--------------------------|    play each chord 16x before
B|--------------------------|	 moving to the next one. after
G|--------------------------|2x  the second time play G 2x quickly
D|----------5---7-----------|    and slide from the 12th fret to 
A|--5---2---3---5-----------|    the 1st on the E string.
E|--3---0-------------------|
    G   Em  C   D

verse: guitar 1
e|--3--2--3----3--2--3----3--2--3---|    listen to the song to
B|--3--3--3----3--3--3----3--3--3---|    see when to do this 
G|----------------------------------|3x  during the verse. its 
D|----------------------------------|    on the second time the 
A|----------------------------------|    guitar 2 does its 
E|----------------------------------|    sequence.

verse: guitar 2
e|--------------------------|
B|--------------------------|    play each chord 16x
G|--------------------------|2x  before moving to the
D|-----5-----5--------------|    next one.
A|--5--3--2--3--------------|
E|--3-----0-----------------|
    *  *  *  *

interlude: guitar 1 (it's the same as the intro.)
e|----3p2----2------3p2---0-------3p2---2-------3p2---2---3h5---|   
B|---------3---3--------3---3---------3---3---------3---3-------|  
G|--------------------------------------------------------------|  
D|-------------------------------------------0------------------|  
A|-----------------------------3--------------------------------|  
E|--3-------------0---------------------------------------------|
 play this 2x by itself then add second guitar but continue to 
 play this.

interlude: guitar 2 (it's the same as the chorus)
e|--------------------------|
B|--------------------------|     play each chord 16x
G|--------------------------| 2x  before moving to the 
D|----------5---7-----------|     next one.
A|--5---2---3---5-----------|
E|--3---0-------------------|
    *   *   *   *

ending: guitar 1
e|--------------------------|
B|--8p7h8p7-----------------|     
G|--------------------------|    
D|--------------------------|     
A|--------------------------|
E|--------------------------|
    
ORDER:
1)intro
2)chorus
3)verse
4)chorus
5)verse
6)chorus
7)interlude
8)chorus
9)chorus
10)ending

h = hammer-on
p = pull-off
* = palm mute
=============================================================================


Текст, аккорды и табулатура для песни "The Quiet Things That No One Ever Knows", исполняет "Brand New".
Используемые в песне аккорды можно найти в разделе Как брать аккорды. Аккорды для шестиструнной гитары. Другие песни можно найти на нашем сайте, воспользовавшись алфавитным указателем вверху страницы.


 
Ошибка в тексте? Выделите ошибку и нажмите Ctrl+Enter