Artist: Brand New	
Song:   The Quiet Things That No One Ever Knows
Album:  Deja Entendu
Tunings: Guitar 1: Standard (E A D G B e)
         Guitar 2: Drop D   (D A D G B e)

Here’s my try at the brand new Brand New song, The Quiet Things That No One
Ever Knows”. It all sounds good to me, so feel free to comment on it.

Intro P.1/Bridge P.1
Guitar 1:
e|----2p1-1------------2p1--------------2p1-1------------2p1-1--1-2/4-4--|
B|-------2---2------------24--2------------2---2------------2------------|
G|-----------------------------------------------------------------------|
D|-----------------------------------------------------------------------|
A|-----------------------------------------------------------------------|
E|-----------------------------------------------------------------------|

Guitar 2:
e|-----------------------------------------------------------------------|
B|-----------------------------------------------------------------------|
G|-----------------------------------------------------------------------|
D|-----------------------------------------------------------------------|
A|-----------------------------------2---------------4-------------------|
D|4----------------1-----------------------------------------------------|

Intro P.2/Chorus

Guitar 1:
e|-----------------------------------------------------------------------|
B|-----------------------------------------------------------------------|
G|-----6-------6-------6-------6---3434-4343434-434----6-------6---------|
D|-3434-4343434-4343434-4343434-434----4-------4---3434-4343434-434------|
A|-----------------------------------------------------------------------|
E|-----------------------------------------------------------------------|

Guitar 2: 
e|-----------------------------------------------------------------------|
B|-----------------------------------------------------------------------|
G|-----------------------------------------------------------------------|
D|-4-4-4-4-4-4-4-4-1-1-1-1-1-1-1-1-9-9-9-9-9-9-9-9-11-11-11-11-11-11-----|
A|-4-4-4-4-4-4-4-4-1-1-1-1-1-1-1-1-9-9-9-9-9-9-9-9-11-11-11-11-11-11-----|
D|-4-4-4-4-4-4-4-4-1-1-1-1-1-1-1-1-9-9-9-9-9-9-9-9-11-11-11-11-11-11-----|

Guitar 1:
e|-----------------------------------------------------------------------|
B|-----------------------------------------------------------------------|
G|-----6-------6---3434-4343434-434----6-------6---3434-4343434-343------|
D|-3434-4343434-434----4-------4---3434-4343434-434----4-------4---------|
A|-----------------------------------------------------------------------|
E|-----------------------------------------------------------------------|

Guitar 2:
e|-----------------------------------------------------------------------|
B|-----------------------------------------------------------------------|
G|-----------------------------------------------------------------------|
D|-4-4-4-4-4-4-4-4-1-1-1-1-1-1-1-1-9-9-9-9-9-9-9-9-11-11-11-11-11-11-----|
A|-4-4-4-4-4-4-4-4-1-1-1-1-1-1-1-1-9-9-9-9-9-9-9-9-11-11-11-11-11-11-----|
D|-4-4-4-4-4-4-4-4-1-1-1-1-1-1-1-1-9-9-9-9-9-9-9-9-11-11-11-11-11-11-----|

End Intro and 1st Chorus on this:

Guitar 1:
e|------|
B|------|
G|------|
D|------|
A|------|
E|-10/1-|

Verse:

Guitar 1:
e|-----------------------------------------------------------------------|
B|-----------------------------------------------------------------------|
G|-----------------------------------------------------------------------|
D|-----------------------------------------------------------------------|
A|-xxxxxxxxxxxxxxxxxxxxxxxxxxxxxxxxxxxxxxxxxxxxxxxxxxxxxxxxxxxxxxxx------|
E|-xxxxxxxxxxxxxxxxxxxxxxxxxxxxxxxxxxxxxxxxxxxxxxxxxxxxxxxxxxxxxxxx------|

Guitar 2:
e|-----------------------------------------------------------------------|
B|-----------------------------------------------------------------------|
G|-----------------------------------------------------------------------|
D|-----------------------------------------------------------------------|
A|-----------------------------------------------------------------------|
D|-----------------------------------------------------------------------|

Guitar 1:
e|-----------------------------------------------------------------------|
B|-----------------------------------------------------------------------|
G|-----------------------------------------------------------------------|
D|-----------------------------------------------------------------------|
A|-xxxxxxxxxxxxxxxxxxxxxxxxxxxxxxxxxxxxxxxxxxxxxxxxxxxxxxxxxxxxxxxx------|
E|-xxxxxxxxxxxxxxxxxxxxxxxxxxxxxxxxxxxxxxxxxxxxxxxxxxxxxxxxxxxxxxxx------|

Guitar 2:
e|-----------------------------------------------------------------------|
B|-----------------------------------------------------------------------|
G|-----------------------------------------------------------------------|
D|-----8/7-6/5-8/7-----8/7-6/5-8/7-----8/7-6/5-8/7---------44444444------|
A|-----8/7-6/5-8/7-----8/7-6/5-8/7-----8/7-6/5-8/7---------44444444------|
D|-----8/7-6/5-8/7-----8/7-6/5-8/7-----8/7-6/5-8/7---------44444444------|

Bridge P.2

Guitar 1:
e|----2p1-1------------2p1--------------2p1-1------------2p1-1--122/4-4--|
B|-------2---2------------24--2------------2---2------------2------------|
G|-----------------------------------------------------------------------|
D|-----------------------------------------------------------------------|
A|-----------------------------------------------------------------------|
E|-----------------------------------------------------------------------|

Guitar 2:
e|-----------------------------------------------------------------------|
B|-----------------------------------------------------------------------|
G|-----------------------------------------------------------------------|
D|-----------------------------------------------------------------------|
A|--xxxxxxxxxxxxxxxxxxxxxxxxxxxxxxxxxxxxxxxxxxxxxxxxxxxxxxxxxxxxxxx------|
D|--xxxxxxxxxxxxxxxxxxxxxxxxxxxxxxxxxxxxxxxxxxxxxxxxxxxxxxxxxxxxxxx------|

Bridge P.3
Guitar 1:
e|-----------------------------------------------------------------------|
B|-----------------------------------------------------------------------|
G|-----6-------6-------6-------6---3434-4343434-434----6-------6---------|
D|-3434-4343434-4343434-4343434-434----4-------4---3434-4343434-434------|
A|-----------------------------------------------------------------------|
E|-----------------------------------------------------------------------|

Guitar 2:
e|-----------------------------------------------------------------------|
B|-----------------------------------------------------------------------|
G|-----------------------------------------------------------------------|
D|-4-4-4-----------1-1-1-1-1-1-1-1-9-9-9-9-9-9-9-9-11-11-11-11-11-11-----|
A|-4-4-4-----------1-1-1-1-1-1-1-1-9-9-9-9-9-9-9-9-11-11-11-11-11-11-----|
D|-4-4-4-----------1-1-1-1-1-1-1-1-9-9-9-9-9-9-9-9-11-11-11-11-11-11-----|

Guitar 1:
e|-----------------------------------------------------------------------|
B|-----------------------------------------------------------------------|
G|-----6-----------3434-4343434-434----6-------6---3434-4343434-343------|
D|-3434----------------4-------4---3434-4343434-434----4-------4---------|
A|-----------------------------------------------------------------------|
E|-----------------------------------------------------------------------|

Guitar 2:
e|-----------------------------------------------------------------------|
B|-----------------------------------------------------------------------|
G|-----------------------------------------------------------------------|
D|-4-4-4-4-4-4-4-4-1-1-1-1-1-1-1-1-9-9-9-9-9-9-9-9-11-11-11-11-11-11-----|
A|-4-4-4-4-4-4-4-4-1-1-1-1-1-1-1-1-9-9-9-9-9-9-9-9-11-11-11-11-11-11-----|
D|-4-4-4-4-4-4-4-4-1-1-1-1-1-1-1-1-9-9-9-9-9-9-9-9-11-11-11-11-11-11-----|


End with this:

Guitar 1:
e|------------|
B|------------|
G|-----4--3---|
D|------------|
A|------------|
E|------------|

Guitar 2:
e|------------|
B|------------|
G|------------|
D|-11---------|
A|-11---------|
D|-11---------|

Intro P.1
Intro p.2
Verse
Chorus
Verse
Chorus
Bridge P.1 2x 
Bridge P.2 2x
Bridge P.3 
Chorus     2x

Lyrics:
We saw the western coast. I saw the hospital. 
Nurse the shoreline like a wound. 
We paint a lover's tryst. We're neither clear nor descript. 
We kept it safe and slow. The quiet things that no one ever knows. 
CHORUS:
Keep the blood in your head and keep your feet on the ground. 
Today's the day it gets tired. Today's the day we drop down. 
Give up my body in bed. All for an empty hotel. 
Wasting words on lowercases and capitals. 
I contemplate the day we wed. Your friends are boring me to death. 
Your veil is ruined in the rain. 
By then you like to do without. There's nothing new to talk about. 
And though our kids are blessed, the parents let them shoulder all the blame. 
CHORUS
I lie for only you. 
And I lie well. Halleluh.
CHORUS 2X

...................................that’s it.........................bye


Текст, аккорды и табулатура для песни "The Quiet Things That No One Ever Knows", исполняет "Brand New".
Используемые в песне аккорды можно найти в разделе Как брать аккорды. Аккорды для шестиструнной гитары. Другие песни можно найти на нашем сайте, воспользовавшись алфавитным указателем вверху страницы.


 
Ошибка в тексте? Выделите ошибку и нажмите Ctrl+Enter