Song Played In Dropped D Tuning
 
 intro

Guitar 1
e|-14-13-12-13----12-9-10-11-----14-13-12-13-----12-9-10-11-13-14/16-
b|------------12-------------9--------------12-----------------------
g|--------------------------------------------------------------------
d|--------------------------------------------------------------------
a|--------------------------------------------------------------------
d|0-------------1---------------0---------------1---------------------

 fig.1
e|------------------------------------------
a|-------------14-14------------------------
d|-10-11-10-11------11-11-------------------
g|------------------------------------------
b|------------------------------------------
d|------------------------------------------

 fig.2
e|------------------------------------------
a|-------------18-18------------------------
d|-14-15-14-15-------15-15------------------
g|------------------------------------------
b|------------------------------------------
d|------------------------------------------

 fig.3
e|------------------------------------------
a|------------------------------------14--10
d|-10-11-10-11-10-11-10-11-10-11-10-11--11--
g|------------------------------------------
b|------------------------------------------
d|------------------------------------------

 guitar 1 verse
e|------------------------------------
a|------------------------------------
d|------------------------------------


Текст, аккорды и табулатура для песни "The Quiet Things That No One Ever Knows", исполняет "Brand New".
Используемые в песне аккорды можно найти в разделе Как брать аккорды. Аккорды для шестиструнной гитары. Другие песни можно найти на нашем сайте, воспользовавшись алфавитным указателем вверху страницы.


 
Ошибка в тексте? Выделите ошибку и нажмите Ctrl+Enter