email me at [email protected]
Tuning:
eb
Bb
Gb
Db
Ab
Eb


----3p2-2----------3p2-2--------
-------3--3-----------3--3------
--------------------------------
--------------------------------
--------------------------------
3--------------0----------------


----3p2-2----------3p2-2--3h5---
-------3--3-----------3--3------
--------------------------------
--------------------------------
3--------------5----------------
--------------------------------

x4
----10---
7878--878
---------
---------
---------
---------

x2
7878-878
----8---
--------
--------
--------
--------

x2
----10---
7878--878
---------
---------
---------
---------

Guitar 2
--------------------------------
--------------------------------
--------------------------------
55555555555555552222222222222222
55555555555555552222222222222222
33333333333333330000000000000000

--------------------------------
--------------------------------
55555555555555557777777777777777
55555555555555557777777777777777
33333333333333335555555555555555
--------------------------------

--------------------------------
--------------------------------
--------------------------------
55555555555555552222222222222222
55555555555555552222222222222222
33333333333333330000000000000000

--------------------------------
--------------------------------
55555555555555557777777777777777
55555555555555557777777777777777
33333333333333335555555555555555
--------------------------------

Verse
--------
--------
--------
55------
55------
33--9-5-

--------------------------------
--------------------------------
----------------5555555555555555
55555555555555555555555555555555
55555555555555553333333333333333
3333333333333333----------------

--------------------------------
--------------------------------
----------------5555555555555555
22222222222222225555555555555555
22222222222222223333333333333333
0000000000000000----------------

--------------------------------
----88--77--88------88--77--88--
----77--77--77------77--77--77--
----55--55--55------55--55--55--
--------------------------------
--------------------------------

--------------------------------
----88--77--88------------------
----77--77--77------------------
----55--55--55------------------
--------------------------------
--------------------------------

--------------------------------
--------------------------------
----------------5555555555555555
55555555555555555555555555555555
55555555555555553333333333333333
3333333333333333----------------

--------------------------------
--------------------------------
----------------5555555555555555
22222222222222225555555555555555
22222222222222223333333333333333
0000000000000000----------------

--------------------------------
--------------------------------
----------------5555555555555555
55555555555555555555555555555555
55555555555555553333333333333333
3333333333333333----------------

--------------------------------
--------------------------------
----------------5555555555555555
22222222222222225555555555555555
22222222222222223333333333333333
0000000000000000----------------

x4
----10---
7878--878
---------
---------
---------
---------

x2
7878-878
----8---
--------
--------
--------
--------

x2
----10---
7878--878
---------
---------
---------
---------

Guitar 2
--------------------------------
--------------------------------
--------------------------------
55555555555555552222222222222222
55555555555555552222222222222222
33333333333333330000000000000000

--------------------------------
--------------------------------
55555555555555557777777777777777
55555555555555557777777777777777
33333333333333335555555555555555
--------------------------------

--------------------------------
--------------------------------
--------------------------------
55555555555555552222222222222222
55555555555555552222222222222222
33333333333333330000000000000000

--------------------------------
--------------------------------
55555555555555557777777777777777
55555555555555557777777777777777
33333333333333335555555555555555
--------------------------------

Verse
--------
--------
--------
55------
55------
33--9sd- (slide down)

--------------------------------
--------------------------------
----------------5555555555555555
55555555555555555555555555555555
55555555555555553333333333333333
3333333333333333----------------

--------------------------------
--------------------------------
----------------5555555555555555
22222222222222225555555555555555
22222222222222223333333333333333
0000000000000000----------------

--------------------------------
----88--77--88------88--77--88--
----77--77--77------77--77--77--
----55--55--55------55--55--55--
--------------------------------
--------------------------------

--------------------------------
----88--77--88------------------
----77--77--77------------------
----55--55--55------------------
--------------------------------
--------------------------------

--------------------------------
--------------------------------
----------------5555555555555555
55555555555555555555555555555555
55555555555555553333333333333333
3333333333333333----------------

--------------------------------
--------------------------------
----------------5555555555555555
22222222222222225555555555555555
22222222222222223333333333333333
0000000000000000----------------

--------------------------------
--------------------------------
----------------5555555555555555
55555555555555555555555555555555
55555555555555553333333333333333
3333333333333333----------------

--------------------------------
--------------------------------
----------------5555555555555555
22222222222222225555555555555555
22222222222222223333333333333333
0000000000000000----------------

----3p2-2----------3p2-2--------
-------3--3-----------3--3------
--------------------------------
--------------------------------
--------------------------------
3--------------0----------------


----3p2-2----------3p2-2--3h5---
-------3--3-----------3--3------
--------------------------------
--------------------------------
3--------------5----------------
--------------------------------

--------------------------------
--------------------------------
--------------------------------
5--------------2----------------
5--------------2----------------
3--------------0----------------

--------------------------------
--------------------------------
5--------------7----------------
5--------------7----------------
3--------------5----------------
--------------------------------

----3p2-2----------3p2-2--------
-------3--3-----------3--3------
--------------------------------
--------------------------------
--------------------------------
3--------------0----------------


----3p2-2----------3p2-2--3h5---
-------3--3-----------3--3------
--------------------------------
--------------------------------
3--------------5----------------
--------------------------------

--------------------------------
--------------------------------
--------------------------------
55555555555555552222222222222222
55555555555555552222222222222222
33333333333333330000000000000000
................................

--------------------------------
--------------------------------
55555555555555557777777777777777
55555555555555557777777777777777
33333333333333335555555555555555
--------------------------------
................................

--------------------------------
--------------------------------
--------------------------------
55555555555555552222222222222222
55555555555555552222222222222222
33333333333333330000000000000000
................................

--------------------------------
--------------------------------
55555555555555557777777777777777
55555555555555557777777777777777
33333333333333335555555555555555
--------------------------------
.........................


Текст, аккорды и табулатура для песни "The Quiet Things That No One Ever Knows", исполняет "Brand New".
Используемые в песне аккорды можно найти в разделе Как брать аккорды. Аккорды для шестиструнной гитары. Другие песни можно найти на нашем сайте, воспользовавшись алфавитным указателем вверху страницы.


 
Ошибка в тексте? Выделите ошибку и нажмите Ctrl+Enter