-------------------------------------------------------------------------------
			     The Boy Who Blocked His Own Shot - Brand New
-------------------------------------------------------------------------------
Tabbed by:Toodles
Email:[email protected]

Tuning:EADbge
!!!!!!!!!!!!CHORDS USED!!!!!!!!!!!!
(e|-0--0--0--0--0--0--0--0--0--0-|)
(B|-0--0--0--0--0--0--0--7--0--3-|)
(G|-0--5--0--0--7--0--0--5--7--0-|)
(D|-0--0--0--0--0--7--5--0--5--5-|)
(A|-5--0--0--0--9--9--3--0--0--3-|)
(E|-3--3--3--9--0--0--0--0--0--0-|)


listen to song for strumming patterns!!!!

Intro:
e|-0--0--0--0--0--0--0-|
B|-0--0--0--0--0--0--0-|
G|-0--5--0--0--7--0--0-|
D|-0--0--0--0--0--7--5-|
A|-5--0--0--9--9--9--3-|
E|-3--3--3--0--0--0--0-|

Verse:
e|-0--0--0--0--0--0--0--0|
B|-0--0--0--0--0--0--0--3|
G|-0--5--0--0--7--0--0--0|
D|-0--0--0--0--0--7--5--5|
A|-5--0--0--9--9--9--3--3|
E|-3--3--3--0--0--0--0--0|


chorus:
e|-0--0--0--0-|
B|-0--0--0--3-|
G|-7--0--0--0-|
D|-5--7--5--5-|
A|-0--5--3--3-|
E|-0--0--0--0-|

well...thats it...just remember when to change chords and u should b ok
ROCK ONWARD!!!   
Toodles


Текст, аккорды и табулатура для песни "The Boy Who Blocked His Own Shot", исполняет "Brand New".
Используемые в песне аккорды можно найти в разделе Как брать аккорды. Аккорды для шестиструнной гитары. Другие песни можно найти на нашем сайте, воспользовавшись алфавитным указателем вверху страницы.


 
Ошибка в тексте? Выделите ошибку и нажмите Ctrl+Enter