Intro
    
    G              Dsus            Cadd9

Eb|-3---------------3---------------3------3~|
Bb|-3---------------3---------------3------3~| 
Gb|-0---------------2---------------0------0~|  
Db|-0---------------0---------------2------2~|  /Hold for 8 counts
Ab|-2---------------x---------------3------3~| /
Eb|-3---------------x---------------x------x~|/

Verse/Chorus

    G              Dsus            Cadd9

Eb|-3---------------3---------------3---------------|
Bb|-3---------------3---------------3---------------|
Gb|-0---------------2---------------0---------------|
Db|-0---------------0---------------2---------------|
Ab|-2---------------x---------------3---------------|
Eb|-3---------------x---------------x---------------|


That is the whole song as far as the chords go. The strumming is pretty much just
down-strokes 16 times each (except for the beginning) with a few up-strokes
thrown in at the end of each chord.


Текст, аккорды и табулатура для песни "The Boy Who Blocked His Own Shot", исполняет "Brand New".
Используемые в песне аккорды можно найти в разделе Как брать аккорды. Аккорды для шестиструнной гитары. Другие песни можно найти на нашем сайте, воспользовавшись алфавитным указателем вверху страницы.


 
Ошибка в тексте? Выделите ошибку и нажмите Ctrl+Enter