my first tab, this song rocks so hard and i couldnt find a tab, so i decided to do my own

Brand New-Soco Amaretto Lime
...=next chord
,,,=missing words
p=pulloff

(Dropped D)

E------------------------------------------------------------------------------------------|I
B------------------------------------------------------------------------------------------|I
G--6-6-6-6-6-6-6-6-6-6-6-6-6-6-6-6---------------------------------------------------------|I
D--6-6-6-6-6-6-6-6-6-6-6-6-6-6-6-6-4-4-4-4-4-4-4-4-6-6-6-6-6-6-6-6-------------------------|I  2X then the words
A--4-4-4-4-4-4-4-4-4-4-4-4-4-4-4-4-4-4-4-4-4-4-4-4-4-4-4-4-4-4-4-4-------------------------|I
D----------------------------------4-4-4-4-4-4-4-4-4-4-4-4-4-4-4-4------------------I------|     vvvvVvvvv
 passed out on the overpass.......sunday best and.broken glass
 broken down from the bikes+bars..suspended like spirits over.speeding cars

E------------------------------------------------------------------------------------------|I
B------------------------------------------------------------------------------------------|I
G---------------------------------6-6-6-6-6-6-6-6-6----------------------------------------|I
D-6-6-6-6-6-6-6-6-6-6-6-6-6-6-6-6-6-6-6-6-6-6-6-6-6-4-4-4-4-4-4-4-4------------------------|I
A-6-6-6-6-6-6-6-6-6-6-6-6-6-6-6-6-4-4-4-4-4-4-4-4-4-4-4-4-4-4-4-4-4------------------------|I
D-6-6-6-6-6-6-6-6-6-6-6-6-6-6-6-6-------------------4-4-4-4-4-4-4-4----------------I-------|      eeeeEeeee
 you and me were kings over the...parkway to........nite

E------------------------------------------------------------------------------------------|I
B------------------------------------------------------------------------------------------|I
G---------------------------------6-6-6-6-6-6-6-6-6----------------------------------------|I
D-6-6-6-6-6-6-6-6-6-6-6-6-6-6-6-6-6-6-6-6-6-6-6-6-6-4-4-4-4-4-4-4-4-6-6-6-6-6-6-6-6--------|I
A-6-6-6-6-6-6-6-6-6-6-6-6-6-6-6-6-4-4-4-4-4-4-4-4-4-4-4-4-4-4-4-4-4-4-4-4-4-4-4-4-4--------|I
D-6-6-6-6-6-6-6-6-6-6-6-6-6-6-6-6-------------------4-4-4-4-4-4-4-4-4-4-4-4-4-4-4-4-I------|     rrrrRrrrr
  and tonite will go,,,,whle we...walk,,the streets.and stay awake through,,,the heat

E------------------------------------------------------------------------------------------|I
B------------------------------------------------------------------------------------------|I
G--6-6-6-6-6-6-6-6-6-6-6-6-6-6-6-6---------------------------------------------------------|I
D--6-6-6-6-6-6-6-6-6-6-6-6-6-6-6-6-4-4-4-4-4-4-4-4-6-6-6-6-6-6-6-6-------------------------|I
A--4-4-4-4-4-4-4-4-4-4-4-4-4-4-4-4-4-4-4-4-4-4-4-4-4-4-4-4-4-4-4-4-------------------------|I
D----------------------------------4-4-4-4-4-4-4-4-4-4-4-4-4-4-4-4------------------I------|     ssssSssss
   singing everybody,,,time to get.down,,everybody wake up its time to get down

E------------------------------------------------------------------------------------------|I
B------------------------------------------------------------------------------------------|I
G---------------------------------6-6-6-6-6-6-6-6-6----------------------------------------|I
D-6-6-6-6-6-6-6-6-6-6-6-6-6-6-6-6-6-6-6-6-6-6-6-6-6-4-4-4-4-4-4-4-4------------------------|I
A-6-6-6-6-6-6-6-6-6-6-6-6-6-6-6-6-4-4-4-4-4-4-4-4-4-4-4-4-4-4-4-4-4------------------------|I
D-6-6-6-6-6-6-6-6-6-6-6-6-6-6-6-6-------------------4-4-4-4-4-4-4-4----------------I-------|      eeeeEeeee
  and when i,,,,,to pete on the...overpass to.......nite i bet we laugh


E-----------------------------------------------------------------------------------|I
B-----------------------------------------------------------------------------------|I  F
G-----------------------------------------------------------------------------------|I  I
D---4p3-4p3-4p3-4p3-----------------------------------------------------------------|I  L
A-----------------------------------------------------------------------------------|I  L
D-----------------------------------------------------------------------------------|I

E-----------------------------------------------------------------------------------|I  C
B-----------------------------------------------------------------------------------|I
G---------------------------------6-6-6-6-6-6-6-6-6-6-6-6-6-6-6-6-------------------|I  H
D-4-4-4-4-4-4-4-4-4-4-4-4-4-4-4-4-6-6-6-6-6-6-6-6-6-6-6-6-6-6-6-6-------------------|I
A-4-4-4-4-4-4-4-4-4-4-4-4-4-4-4-4-4-4-4-4-4-4-4-4-4-4-4-4-4-4-4-4-------------------|I  O
D-4-4-4-4-4-4-4-4-4-4-4-4-4-4-4-4---------------------------------------------------|I
I im gonna stay 18 forever....... so we can stay like this forever		   I
  and well never have to listen...to ne1 about nething 				   I  R
E--------------------------------------------------------------------------------------|I
B--------------------------------------------------------------------------------------|I  U
G--------------------------------------------------------------------------------------|I
D-1-1-1-1-1-1-1-1-1-1-1-1-1-1-1-1-6-6-6-6-6-6-6-6-6-6-6-6-6-6-6-6----------------------|I  S
A-1-1-1-1-1-1-1-1-1-1-1-1-1-1-1-1-6-6-6-6-6-6-6-6-6-6-6-6-6-6-6-6----------------------|I
D-1-1-1-1-1-1-1-1-1-1-1-1-1-1-1-1-6-6-6-6-6-6-6-6-6-6-6-6-6-6-6-6------------------I---|  2X
  and well never miss a party...cuz we'll keep them goin constantly
  cuz its all,,,all been said....were the coolest kids and we take what we can get

             BACK TO Beginning


Текст, аккорды и табулатура для песни "Soco Amaretto Lime", исполняет "Brand New".
Используемые в песне аккорды можно найти в разделе Как брать аккорды. Аккорды для шестиструнной гитары. Другие песни можно найти на нашем сайте, воспользовавшись алфавитным указателем вверху страницы.


 
Ошибка в тексте? Выделите ошибку и нажмите Ctrl+Enter