verse: first time 
Gb|----------------------------------| 
Db|-----------------7-6------7-6---9-| 
Ab|-4-4-4-4-4-4-4-4------7-------7---| 
Eb|------------------------5---------| 

second time 
Gb|----------------------------------| 
Db|-----------------7-6----7-6---7---| 
Ab|-4-4-4-4-4-4-4-4------7-----7---6-| 
Eb|----------------------------------| 

Third Time
Gb|----------------------------------| 
Db|-----------------7-6------7-6---9-| 
Ab|-4-4-4-4-4-4-4-4------7-4-----7---| 
Eb|----------------------------------| 

chorus 
Gb------------------------------------------------------------------- 
Db----------------------------------------2/4-4-4-4-44---------------
Ab-4-4-4-4-4-4-4-4-------------2/4-4-4-4---------------0-0-0-0-0-0---
Eb-----------------0-0-0-0-0-0-------------------------------------2- 

bridge 
Gb|----------------------------------| 
Db|----------------------------------| 
Ab|-4--------4-----------------------| 
Eb|---5-5------5-5----2-0-0----2-0-0-|


Текст, аккорды и табулатура для песни "Sic Transit Gloria Glory Fades", исполняет "Brand New".
Используемые в песне аккорды можно найти в разделе Как брать аккорды. Аккорды для шестиструнной гитары. Другие песни можно найти на нашем сайте, воспользовавшись алфавитным указателем вверху страницы.


 
Ошибка в тексте? Выделите ошибку и нажмите Ctrl+Enter