Tabbed by Joed

TUNNED FLAT


e----3p2p0h2-----------3p2p0-0------3p2p0h2-----3p2p0h2/5--------|
B------------3----------------3------------3---------------------|
G----------------------------------------------------------------|
D---------------------------------------------0------------------|
A---------------------------------3------------------------------|
E-3-------------0------------------------------------------------|


section 1                section2
e-------------10--------|-----------------15-------------|
B-7h8-7h8-7h8----8p7h8--|12h13-12h13-12h13--31p12h13-----|
G-----------------------|--------------------------------|
D----do 4 times --------|--------------------------------|
A-----------------------|--------do 2 times, then sec1---|2x
E-----------------------|------------than 2 2x-----------|

verse - listen to song for rythym, all chords plam muted
e------------------------------|
B------------------------------|
G-------5-7--------------------|
D-5--2--5-7--------------------|
A-5--2--3-5--------------------|
E-3--0-------------------------|

prechorus (it was a lover's trist, neither clear nor discript....)
e------------------------------|
B------------------------------|
G------------------------------|
D-5-4-5-2----------------------|do until chorus, listen to song
A-5-4-5-2----------------------|for timing
E-3-2-3-0----------------------|

chorus (keep ur blood in your head...) listen for timing
e-------------|----------------|
B-------------|--at end--------|
G-------5-7---|----------------|
D-5--2--5-7---|-5-5------------|
A-5--2--3-5---|-5-5------------|
E-3--0--------|-3-3------------|

bridge- same as intro
2nd part of bridge- like sections 1 and 2

outro w/chorus
e-------------|----------------|
B-------------|--7-8~~~~-------|
G-------5-7---|----------------|
D-5--2--5-7---|----------------|
A-5--2--3-5---|----------------|
E-3--0--------|----------------|


Текст, аккорды и табулатура для песни "Quiet Things That No One Ever Knows", исполняет "Brand New".
Используемые в песне аккорды можно найти в разделе Как брать аккорды. Аккорды для шестиструнной гитары. Другие песни можно найти на нашем сайте, воспользовавшись алфавитным указателем вверху страницы.


 
Ошибка в тексте? Выделите ошибку и нажмите Ctrl+Enter