Okay I Believe You, But My Tommy Gun Don't
Brand New
Tuning - 1/2 down...Eb Ab Db Gb Bb eb

Tabbed by Mike Kopp ([email protected])

Intro / First Verse
|---------------------------------------|
|---------------------------------------|
|---------------------------------------|
|--9-9-9-9-9-9-9-9/12-12-12-12/5-5-5-5--|
|--7-7-7-7-7-7-7-7/10-10-10-10/3-3-3-2--|
|---------------------------------------|
 PM......................................

Next Part
|---------------------------------------------------------------------------|
|---------------------------------------------------------------------------|
|---------------------------------------------------------------------------|
|--8-8-8-8-8-8-8-8/4-4-4-4-4-4-4-4/12-12-12-12-12-12-12-12/9-9-9-9-9-9-9-9--|
|--5-5-5-5-5-5-5-5/2-2-2-2-2-2-2-2/10-10-10-10-10-10-10-10/7-7-7-7-7-7-7-7--|
|---------------------------------------------------------------------------|
 PM..........................................................................

Then
|--------------------------------------------------------------------------|
|--------------------------------------------------------------------------|
|--------------------------------------------------------------------------|
|--8-8-8-8-8-8-8-8/4-4-4-4-4-4-4-4/12-12-12-12-12-12-12-12/9-9-9-9-9-9-9-9-|
|--5-5-5-5-5-5-5-5/2-2-2-2-2-2-2-2/10-10-10-10-10-10-10-10/7-7-7-7-6-6-6-6-|
|--------------------------------------------------------------------------|
 PM.........................................................................

Then
|-------------------------------------|
|-------------------------------------|
|-------------------------------------|
|--8-8-8-8-8-8-8-8-8-8-8-8-8-8-8-8-8--|
|--5-5-5-5-5-5-5-5-5-5-5-5-5-5-5-5-5--|
|-------------------------------------|
 PM....................................

Then
|----------------------------------|
|----------------------------------|
|----0--0--0--0------0--------0----|
|-----------------12---12---5------|
|--7--7--7--7--10---------3-----2--|
|----------------------------------|
 
Chorus
|-------------------------------------------------------------------|
|-------------------------------------------------------------------|
|-------------------------------------------------------------------|
|----------5-5-5-5---------5-5-5-5-------------------------5-5-5-5--|
|--5-5-5-5-3-3-3-3-2-2-2-2-3-3-3-3-2-2-2-2-5-5-5-5-7-7-7-7-3-3-3-3--|
|--3-3-3-3---------0-0-0-0---------0-0-0-0-3-3-3-3-5-5-5-5----------|

Second Verse
|----------------------------------|
|----------------------------------|
|----0--0--0--0------0--------0----|
|-----------------12---12---5------|
|--7--7--7--7--10---------3-----2--|
|----------------------------------|

Then
|-----------------------------------------------------------------------|
|-----------------------------------------------------------------------|
|--------------------------------------0----------0--------0-------0----|
|----8-0-8--8-0-8---4-0-4--4-0-4/---12---12----12---12---9---9---9---9--|
|--5-------5------2-------2-----/10---------10---------7-------7--------|
|-----------------------------------------------------------------------|

Then
|-----------------------------------------------------------------------|
|-----------------------------------------------------------------------|
|--------------------------------------0----------0--------0-------0----|
|----8-0-8--8-0-8---4-0-4--4-0-4/---12---12----12---12---9---9---9---9--|
|--5-------5------2-------2-----/10---------10---------7-------6--------|
|-----------------------------------------------------------------------|

Play Chorus Again

Then                   2nd guitar comes in with this part
|------------|     |-------------------------------------------|
|------------| 4x  |-------------------------------------------|  2x
|----4----5--|     |-------------------------------------------|
|----x----x--|     |--9-9-9-9-9-9-9-9/12-12-12-12/17-17-17-17--|
|--2-2--5-5--|     |--7-7-7-7-7-7-7-7/10-10-10-10/15-15-15-15--|
|--0-0--3-3--|     |-------------------------------------------|
                    PM..........................................  
Then
|----------------------------------|
|----------------------------------|
|----0--0--0--0------0--------0----| 2x
|-----------------12---12---5------|
|--7--7--7--7--10---------3-----2--|
|----------------------------------|

Play chorus again

Outro
|------------------------------------|
|------------------------------------|
|----4--------------------4----------|
|----x-----3*-------------x----------|
|--2-2---------2-3------2-2-----3----|
|--0---3-3---3-----3-1--0---3-3---3--|
 PM    ...............      .......


Текст, аккорды и табулатура для песни "Okay I Believe You But My Tommy Gun Dont", исполняет "Brand New".
Используемые в песне аккорды можно найти в разделе Как брать аккорды. Аккорды для шестиструнной гитары. Другие песни можно найти на нашем сайте, воспользовавшись алфавитным указателем вверху страницы.


 
Ошибка в тексте? Выделите ошибку и нажмите Ctrl+Enter