this is with Eb Ab Db and Gb
no bass until first chorus

First Chorus:
Gb-----------------------------------------|
Db-----------------------------------------|
Ab-------------333333333----------33333333-|
Eb-7/-33333333-----------00000000----------|

Chorus riff 2:
Gb----------------------------------------|
Db----------------------------------------|
Ab--------------------000000000-333333333-|
Eb-00000000-333333333---------------------|

Verse 2:
Gb-----------------------|
Db-22-2222-5555----------|
Ab--------------333333---|
Eb-----------------------|

Chorus 2:
Gb---------------------------------------|
Db---------------------------------------|
Ab-----------333333333----------33333333-|
Eb--33333333-----------00000000----------|

Chorus riff 2:
Gb----------------------------------------|
Db----------------------------------------|
Ab--------------------000000000-333333333-|
Eb-00000000-333333333---------------------|

Bridge:
Gb------------------------|
Db------------------------|
Ab---7~-------------------|
Eb-0----0-0~--------------|

Solo:
Gb-----------------------|
Db-22-2222-5555----------|
Ab--------------333333---|
Eb-----------------------|

Play chorus (both riffs) x2

End with bridge


Текст, аккорды и табулатура для песни "Okay I Believe You But My Tommy Gun Dont", исполняет "Brand New".
Используемые в песне аккорды можно найти в разделе Как брать аккорды. Аккорды для шестиструнной гитары. Другие песни можно найти на нашем сайте, воспользовавшись алфавитным указателем вверху страницы.


 
Ошибка в тексте? Выделите ошибку и нажмите Ctrl+Enter