Artist: Brand New
Song: Okay I believe you, but my tommy gun don't
Tabbed by: Sarasman
Email: [email protected]


This Song is not really hard, its basiclly the same 
stuff over and over just changing a bit thorughout the song.
I am really positive this is correct. The only reason it would'nt
Be is if I made a mistake while typing it out, but I checked it.
This is as close as anyone has gotten. It'll probally be easier
If you listen to the song as you play too. Please tell me what you think.

PM = Palm Mute
~ = Let ring

Intro/First Verse:
Guitar 1:
Eb|-----------------------------------|Eb
Bb|-----------------------------------|Bb
Gb|-----------------------------------|Gb
Db|--5-5-5-5-5-5-5-5-9-9-9-9-2-2-2-2--|Db 12x
Ab|--7-7-7-7-7-7-7-710101010-3-3-3-3--|Ab  
Eb|-----------------------------------|Eb
PM   . . . . . . . . . . . . . . . .

Eb|-------------------------------------------------------------------|Eb
Bb|-------------------------------------------------------------------|Bb
Gb|-------------------------------------------------------------------|Gb
Db|--4-4-4-4-4-4-4-4-4-4-4-4-4-4-4-4-9-9-9-9-9-9-9-9-9-9-9-9-9-9-9-9--|Db
Ab|--5-5-5-5-5-5-5-5-2-2-2-2-2-2-2-21010101010101010-7-7-7-7-7-7-7-7--|Ab
Eb|-------------------------------------------------------------------|Eb
PM   . . . . . . . . . . . . . . . . . . . . . . . . . . . . . . . .

Eb|---------------------------------------------------------------------------------------------------|Eb
Bb|---------------------------------------------------------------------------------------------------|Bb
Gb|---------------------------------------------------------------------------------------------------|Gb
Db|--4-4-4-4-4-4-4-4-4-4-4-4-4-4-4-4-9-9-9-9-9-9-9-9-9-9-9-9-5-5-5-5-4-4-4-4-4-4-4-4-4-4-4-4-4-4-4-4--|Db
Ab|--5-5-5-5-5-5-5-5-2-2-2-2-2-2-2-21010101010101010-7-7-7-7-7-7-7-7-5-5-5-5-5-5-5-5-5-5-5-5-5-5-5-5--|Ab
Eb|---------------------------------------------------------------------------------------------------|Eb
PM   . . . . . . . . . . . . . . . . . . . . . . . . . . . . . . . . . . . . . . . . . . . . . . . .

Bridge/Second Verse:

Guitar 1: Play with Guitar 2
Eb|-----------------------------------|Eb
Bb|-----------------------------------|Bb
Gb|-----------------------------------|Gb 
Db|--5-5-5-5-5-5-5-5-9-9-9-9-2-2-2-2--|Db 10x
Ab|--7-7-7-7-7-7-7-710101010-3-3-3-3--|Ab  
Eb|-----------------------------------|Eb
PM   . . . . . . . . . . . . . . . .

Guitar 2: Play with Guitar 1
Eb|----------------------------------------|Eb
Bb|----------------------------------------|Bb
Gb|----------------------------------------|Gb
Db|----7---7---7---7----9----------2-------|Db 10x
Ab|--9---9---9---9---10---10--2--3---3--2--|Ab
Eb|----------------------------------------|Eb

Then:

Guitar 1: Play with Guitar 2
Eb|-------------------------------------------------------------------|Eb
Bb|-------------------------------------------------------------------|Bb
Gb|-------------------------------------------------------------------|Gb
Db|--4-4-4-4-4-4-4-4-4-4-4-4-4-4-4-4-9-9-9-9-9-9-9-9-9-9-9-9-9-9-9-9--|Db
Ab|--5-5-5-5-5-5-5-5-2-2-2-2-2-2-2-21010101010101010-7-7-7-7-7-7-7-7--|Ab
Eb|-------------------------------------------------------------------|Eb
PM   . . . . . . . . . . . . . . . . . . . . . . . . . . . . . . . .

Eb|---------------------------------------------------------------------------------------------------|Eb
Bb|---------------------------------------------------------------------------------------------------|Bb
Gb|---------------------------------------------------------------------------------------------------|Gb
Db|--4-4-4-4-4-4-4-4-4-4-4-4-4-4-4-4-9-9-9-9-9-9-9-9-9-9-9-9-5-5-5-5-4-4-4-4-4-4-4-4-4-4-4-4-4-4-4-4--|Db
Ab|--5-5-5-5-5-5-5-5-2-2-2-2-2-2-2-21010101010101010-7-7-7-7-7-7-7-7-5-5-5-5-5-5-5-5-5-5-5-5-5-5-5-5--|Ab
Eb|---------------------------------------------------------------------------------------------------|Eb
PM   . . . . . . . . . . . . . . . . . . . . . . . . . . . . . . . . . . . . . . . . . . . . . . . .


Guitar 2: Play with Guitar 1
Eb|---------------------------------------------------------------------|Eb
Bb|---------------------------------------------------------------------|Bb
Gb|---------------------------------------0--------0-------0-------0----|Gb
Db|----4-0-4---4-0-4---4-0-4---4-0-4----9---9----9---9---9---9---9---9--|Db 2x
Ab|--5-------5-------2-------2-------10-------10-------7-------7--------|Ab
Eb|---------------------------------------------------------------------|Eb

Eb|-----------------------------------|Eb
Bb|-----------------------------------|Bb
Gb|-----------------------------------|Gb
Db|----4---4---4---4---7---7---7---7--|Db
Ab|--5---5---5---5---5---5---5---5----|Ab
Eb|-----------------------------------|Eb

Chorus:

Guitar 1 with distortion heavy:
Eb|-------------------------------------------------------------------|Eb
Bb|-------------------------------------------------------------------|Bb
Gb|-------------5-55-5-5-5------------5-55-5-5-5----------------------|Gb
Db|--5-55-5-5-5-5-55-5-5-5-2-22-2-2-2-5-55-5-5-5----------------------|Db 2x
Ab|--5-55-5-5-5-3-33-3-3-3-2-22-2-2-2-3-33-3-3-3----------------------|Ab
Eb|--3-33-3-3-3------------0-00-0-0-0---------------------------------|Eb

Third Verse:

Guitar 1:
Eb|-----------------------------------|Eb
Bb|-----------------------------------|Bb
Gb|-----------------------------------|Gb
Db|--5-5-5-5-5-5-5-5-9-9-9-9-2-2-2-2--|Db 10x
Ab|--7-7-7-7-7-7-7-710101010-3-3-3-3--|Ab  
Eb|-----------------------------------|Eb
PM   . . . . . . . . . . . . . . . .

Guitar 2: Play with Guitar 1 after it does the section 2 times
Eb|----------------------------------------|Eb
Bb|----------------------------------------|Bb
Gb|----------------------------------------|Gb
Db|----7---7---7---7----9----------2-------|Db 8x
Ab|--9---9---9---9---10---10--2--3---3--2--|Ab
Eb|----------------------------------------|Eb

Then:

Guitar 1: Play with Guitar 2
Eb|-------------------------------------------------------------------|Eb
Bb|-------------------------------------------------------------------|Bb
Gb|-------------------------------------------------------------------|Gb
Db|--4-4-4-4-4-4-4-4-4-4-4-4-4-4-4-4-9-9-9-9-9-9-9-9-9-9-9-9-9-9-9-9--|Db
Ab|--5-5-5-5-5-5-5-5-2-2-2-2-2-2-2-21010101010101010-7-7-7-7-7-7-7-7--|Ab
Eb|-------------------------------------------------------------------|Eb
PM   . . . . . . . . . . . . . . . . . . . . . . . . . . . . . . . .

Eb|---------------------------------------------------------------------------------------------------|Eb
Bb|---------------------------------------------------------------------------------------------------|Bb
Gb|---------------------------------------------------------------------------------------------------|Gb
Db|--4-4-4-4-4-4-4-4-4-4-4-4-4-4-4-4-9-9-9-9-9-9-9-9-9-9-9-9-5-5-5-5-4-4-4-4-4-4-4-4-4-4-4-4-4-4-4-4--|Db
Ab|--5-5-5-5-5-5-5-5-2-2-2-2-2-2-2-21010101010101010-7-7-7-7-7-7-7-7-5-5-5-5-5-5-5-5-5-5-5-5-5-5-5-5--|Ab
Eb|---------------------------------------------------------------------------------------------------|Eb
PM   . . . . . . . . . . . . . . . . . . . . . . . . . . . . . . . . . . . . . . . . . . . . . . . .

Guitar 2: Play with Guitar 1
Eb|-----------------------------------------------------------------------|Eb
Bb|-----------------------------------------------------------------------|Bb
Gb|-----------------------------------------------------------------------|Gb
Db|----4-0-4---4-0-4---4-0-4---4-0-4----9----9----9----9---9---9---9---9--|Db 2x
Ab|--5-------5-------2-------2-------10---10---10---10---7---7---7---7----|Ab
Eb|-----------------------------------------------------------------------|Eb

Eb|-----------------------------------|Eb
Bb|-----------------------------------|Bb
Gb|-----------------------------------|Gb
Db|--4-4-4-4-4-4-4-4-7-7-7-7-7-7-7-7--|Db
Ab|--5-5-5-5-5-5-5-5-5-5-5-5-5-5-5-5--|Ab
Eb|-----------------------------------|Eb
PM   . . . . . . . . . . . . . . . . 

Chorus 2:

Guitar 1 with distortion heavy:
Eb|-------------------------------------------------------------------|Eb
Bb|-------------------------------------------------------------------|Bb
Gb|-------------5-55-5-5-5------------5-55-5-5-5----------------------|Gb
Db|--5-55-5-5-5-5-55-5-5-5-2-22-2-2-2-5-55-5-5-5----------------------|Db 4x
Ab|--5-55-5-5-5-3-33-3-3-3-2-22-2-2-2-3-33-3-3-3----------------------|Ab
Eb|--3-33-3-3-3------------0-00-0-0-0---------------------------------|Eb

Second Bridge:

Guitar 1 with distortion heavy:
Eb|--------------------------|Eb
Bb|--------------------------|Bb
Gb|--------9~~~~~~-----------|Gb
Db|--2~~~--9~~~~~~-2~~~2~~~--|Db 4x
Ab|--2~~~--7~~~~~~-2~~~2~~~--|Ab
Eb|--0~~~----------0~~~0~~~--|Eb

Eb|---------------------------------|Eb
Bb|---------------------------------|Bb
Gb|--------9~~~~~~------------------|Gb
Db|--2~~~--9~~~~~~------------------|Db 4x
Ab|--2~~~--7~~~~~~-----3------------|Ab
Eb|--0~~~----------2-3---3-2-3-2-3--|Eb

Last Verse:

Guitar 2: Use a strumming pattern
Eb|----------------------------|Eb
Bb|----------------------------|Bb
Gb|----------------------------|Gb
Db|--22-2222-22-55-55-333-2~~--|Db 6x
Ab|--22-2222-22-55-55-333-2~~--|Ab
Eb|--00-0000-00-33-33-111-0~~--|Eb

Chorus 3:

Guitar 1 with distortion heavy:
Eb|-------------------------------------------------------------------|Eb
Bb|-------------------------------------------------------------------|Bb
Gb|-------------5-55-5-5-5------------5-55-5-5-5----------------------|Gb
Db|--5-55-5-5-5-5-55-5-5-5-2-22-2-2-2-5-55-5-5-5----------------------|Db 4x
Ab|--5-55-5-5-5-3-33-3-3-3-2-22-2-2-2-3-33-3-3-3----------------------|Ab
Eb|--3-33-3-3-3------------0-00-0-0-0---------------------------------|Eb


Outro:

Guitar 1 with distortion heavy:
Eb|---------------------------------|Eb
Bb|---------------------------------|Bb
Gb|--------9~~~~~~------------------|Gb
Db|--2~~~--9~~~~~~------------------|Db
Ab|--2~~~--7~~~~~~-----3------------|Ab
Eb|--0~~~----------2-3---3-2-3-2-3--|Eb

Eb|-------------------------|Eb
Bb|-------------------------|Bb
Gb|--------9~~~~~~----------|Gb
Db|--2~~~--9~~~~~~----------|Db
Ab|--2~~~--7~~~~~~-----3----|Ab
Eb|--0~~~----------2-3---3--|Eb


Текст, аккорды и табулатура для песни "Okay I Believe You But My Tommy Gun Dont", исполняет "Brand New".
Используемые в песне аккорды можно найти в разделе Как брать аккорды. Аккорды для шестиструнной гитары. Другие песни можно найти на нашем сайте, воспользовавшись алфавитным указателем вверху страницы.


 
Ошибка в тексте? Выделите ошибку и нажмите Ctrl+Enter