-----------------------------------------------------------------------------
			     Moshi Moshi - Brand New
-----------------------------------------------------------------------------
Tabbed by: Mike Borland
Email: [email protected]

Tuning: 1/2 step down

   Verse 1:
eb|-------------------------------------------------------------------------
Bb|-------------------------------------------------------------------------
Gb|--------7----------7-----------7----------7------------------------------
Db|--7-----7-----7----7------7----7----7-----7------------------------------
Ab|--7-----5-----7----5------7----5----7-----5------------------------------
Eb|--5-----------5-----------5---------5------------------------------------
  I think..let..if...you'd..this..in..I'll..float..

   Pre-chorus:
eb|-----------------------------------------------------------------------
Bb|-----------------------------------------------------------------------
Gb|---------------------------7-------------------------------------------
Db|---9-----------------------7----------9------------------------7-------
Ab|---9-----------------------5----------9------------------------7-------
Eb|---7----------------------------------7------------------------5-------
  What do I do when you get close, if i kiss your neck would you slit my...

   Chorus:
eb|-----------------------------------------------------------------------
Bb|-----------------------------------------------------------------------
Gb|-7---------------------------------------7----------9------------------
Db|-7----7------7-------4-------------------7----------9------------7-----
Ab|-5----7------7-------4-------------------5----------7------------7-----
Eb|------5------4-------2-------------------------------------------5-----
   Are..putting on your makeup darling and dying your hair like you do
Wasting..tryin  to    impress me I waste all my time..thinkin of   you

   Verse 2:
eb|-----------------------------------------------------------------------
Bb|-----------------------------------------------------------------------
Gb|-----------7---------------7-------------7---------------7-------------
Db|--7--------7-------7-------7-------7-----7------7--------7-------------
Ab|--7--------5-------7-------5-------7-----5------7--------5-------------
Eb|--5----------------5---------------5------------5----------------------
Imagining..standing..you're..think..dream..some..you're..probably..

   Pre-chorus:
eb|-----------------------------------------------------------------------
Bb|-----------------------------------------------------------------------
Gb|------------------7----------------------------------------------------
Db|---9--------------7-------------9-------------7------------------------
Ab|---9--------------5-------------9-------------7------------------------
Eb|---7----------------------------7-------------5------------------------
  The more I hang around you, the more hang ups I get

Chorus:
eb|-----------------------------------------------------------------------
Bb|-----------------------------------------------------------------------
Gb|-7---------------------------------------7----------9------------------
Db|-7----7------7-------4-------------------7----------9------------7-----
Ab|-5----7------7-------4-------------------5----------7------------7-----
Eb|------5------4-------2-------------------------------------------5-----
   Are..putting on your makeup darling and dying your hair like you do
Wasting..tryin  to    impress me I waste all my time..thinkin of   you

   Outro:
eb|-----------------------------------------------------------------------
Bb|-----------------------------------------------------------------------
Gb|------7-------------------------------------------------7-------9------
Db|-9----7------9----7-----9----7-----7------4-------------7-------9------
Ab|-9----5------9----7-----9----7-----7------4-------------5-------7------
Eb|-7-----------7----5-----7----5-----4------2----------------------------
..Know..angel..you..true..hey..halo's got a screw loose..dropped..brick..

  Outro(Cont'd):
eb|-----------------------------------------------------------------------
Bb|-----------------------------------------------------------------------
Gb|-----------------------------7------9----------------7--9--------------
Db|--7-----7-------4------------7------9-----7--7--4----7--9---7----------
Ab|--7-----7-------4------------5------7-----7--7--4----5--7---7----------
Eb|--5-----4-------2-------------------------5--4--2-----------5----------
 ..Rooftop of your high school.could..time...


Текст, аккорды и табулатура для песни "Moshi Moshi", исполняет "Brand New".
Используемые в песне аккорды можно найти в разделе Как брать аккорды. Аккорды для шестиструнной гитары. Другие песни можно найти на нашем сайте, воспользовавшись алфавитным указателем вверху страницы.


 
Ошибка в тексте? Выделите ошибку и нажмите Ctrl+Enter