verse
E----------------------------------------------------------------
B----------------------------------------------------------------
G-----------4----------------------------------------------------
D-6----2----4X10-4---5-------------------------------------------
A-6X10-2X10-2----4X5-5X5-----------------------------------------
E-4----0---------2---3-------------------------------------------
chorus
E----------------------------------------------------------------
B----------------------------------------------------------------
G-4--------------------------------------4-----------------------
D-4X16-2----4----6---2---6---2---6---2---4-----------------------
A-2----2X16-4X16-6X2-2X2-6X2-2X2-6X2-2X2-2-----------------------
E------0----2----4---0---4---0---4---0---------------------------
Bridge guitar 1
E----------------------------------------------------------------
B----------------------------------------------------------------
G-8---8---6-8-6-----X4-------------------------------------------
D---9---9-------9------------------------------------------------
A----------------------------------------------------------------
E----------------------------------------------------------------
Bridge guitar 2
E----------------------------------------------------------------
B----------------------------------------------------------------
G----------------------------------------------------------------
D-6---2----------------------------------------------------------
A-6X2-2X2-continue-until-guitar-1-bridge-is-over-----------------
E-4---0----------------------------------------------------------
2nd part of bridge
E----------------------------------------------------------------
B----------------------------------------------------------------
G-4---------------11----4----------------------------------------
D-4X16-2----4-----11X16-4X16-2----4------------------------------
A-2----2X16-4X16--9-----2----2X16-4X16---------------------------
E------0----2----------------0----2------------------------------

Order:
verse X4
chorus
verse X4
chorus X2
brige guitar 1-bridge guitar 2
2nd part of bridge
brige guitar 1-bridge guitar 2
chorus X2
bridge guitar 2


Текст, аккорды и табулатура для песни "I Will Play My Game Beneath The Spin Light", исполняет "Brand New".
Используемые в песне аккорды можно найти в разделе Как брать аккорды. Аккорды для шестиструнной гитары. Другие песни можно найти на нашем сайте, воспользовавшись алфавитным указателем вверху страницы.


 
Ошибка в тексте? Выделите ошибку и нажмите Ctrl+Enter