hello!this is punkdude969 and yep 
i noticed there were no tabs for this
songso here you go

BAND: brand new
SONG: guernica
CD: deja entendu

intro

eb]--------7---]
Bb]------7-----]
Gb]-9--7-------]
Db]------------]
Ab]------------]
Eb]------------]

verse
eb]-------------------------------------------------------------------]
Bb]---------------------------------------------------------3-3/5-5---]
Gb]------------------------------------------------------0---0--------]
Db]-------------------------7-5-4-5---------------------2-2-----------]
Ab]-222222222222222255555555--------5555555555555555-2h3--------------]
Eb]-0000000000000000----------------3333333333333333------------------]
pm.........................        ................

pre-verse
eb]-------------------------------------------------------------------]
Bb]-------------------------------------------------------------------]
Gb]------------------12-16-12--------------------------14----12h1414--]
Db]-1412-14-16-------------------12/14/16----14---------1212---------]
Ab]-------------------------------------------------------------------]
Eb]-------------------------------------------------------------------]

chorus
eb]---------------------------------------]
Bb]---------------------------------------]
Gb]-----7777------------------------------]
Db]-9999777755555555999977775xx5x5x555----]
Ab]-9999555555555555999977775xx5x5x555----]
Eb]-7777----33333333777755553xx3x3x333----]

interlude
eb]--------------------------------------------]
Bb]--------------------------------------------]
Gb]-9-9-7-7-----------9-9-7-7---------5555-----]
Db]-9-9-7-7-9-9-10-10-9-9-7-7-7777777755555555-]
Ab]-7-7-5-5-9-9-10-10-7-7-5-5-7777777733335555-]
Eb]---------7-7--8-8----------55555555----3333-]
pm.                           ..........

2cd part of interlude
eb]----------------------------------]
Bb]----------------------------------]
Gb]----------------------------------]
Db]----------------------------------]
Ab]-----5555-------------------------]
Eb]-7777----33333333777755533333333--]


and there it is and 
yeah have fun and vote for it!


Текст, аккорды и табулатура для песни "Guernica", исполняет "Brand New".
Используемые в песне аккорды можно найти в разделе Как брать аккорды. Аккорды для шестиструнной гитары. Другие песни можно найти на нашем сайте, воспользовавшись алфавитным указателем вверху страницы.


 
Ошибка в тексте? Выделите ошибку и нажмите Ctrl+Enter