Michelle Branch - You Set Me Free
Album - The Spirit Room
Tabber: Me!!!! (Jake Chen) 

There's no capo on this one. 
I guess Michelle knows variety. (just like her looks) 

If any corrections are needed e-mail to [email protected] 

Chords: 
Fmaj7 x03213
G     320033
C     032010
Am    x02210
F     133211
Dm    xx0231

(SECOND GUITAR PART AT BOTTOM!) 

Intro -

Fmaj7, G  

Verse

Can't ...(Fmaj7, G) x4

Pre Chorus - Am, G, C 
	     Am, G, C, G

Chorus - 
'Cause(C) I (G, Am, F) 
wanted... (C) 
so you... (G, Am, F) 
And (C, G, Am)
time..... (F, C, G, F) 
And you set me free 

- Verse,  Chorus

Bridge
)When... (Dm, Am)  
You...(G,C)
When...(G,C) 
You.. (Dm, Am)
And....


SECOND GUITAR - As lazy as she is hot, Michelle didn't bother to 
                write this part... so thank her 2nd guitarist, 
		whoever the hell he is. 


INTRO - You can play this or use the enharmonics on the 
        B string.... this way is just a bit faster. 

E|----------------------------------------------------|
B|----------------------------------------18----17-15-|
G|-17-19-17-19-17-19-17-19---16-19-16-19-----16-------|
D|----------------------------------------------------|
A|----------------------------------------------------|
E|----------------------------------------------------|

E|----------------------------------------------------|
B|----------------------------------------------------|
G|-17-19-17-19-17-19-17-19---16-19-16-19---14-16------|
D|----------------------------------------------------|
A|----------------------------------------------------|
E|----------------------------------------------------|

Solo

E|--------8-8-7-8------------------------------12--12-|
B|-b8b8b8---------8-8h10--8--------8--8h10p8----------|
G|--------------------------10------------------------|
D|----------------------------------------------------|
A|----------------------------------------------------|
E|----------------------------------------------------|

E|-13p12--10-8----8---------------|
B|-------------10-----------------|
G|-------------------10p9---------|
D|-------------------------12--10-|
A|--------------------------------|
E|--------------------------------|


Last Chorus to End - Its hella freaking long, so just improvise 
                     with the scale used. 


Текст, аккорды и табулатура для песни "You Set Me Free", исполняет "Branch Michelle".
Используемые в песне аккорды можно найти в разделе Как брать аккорды. Аккорды для шестиструнной гитары. Другие песни можно найти на нашем сайте, воспользовавшись алфавитным указателем вверху страницы.


Слушать онлайн You Set Me Free


Michelle BranchYou Set Me Free на Яндекс.Музыке


 
Ошибка в тексте? Выделите ошибку и нажмите Ctrl+Enter