#----------------------------------PLEASE NOTE---------------------------------#
#This file is the author's own work and represents their interpretation of the #
#song. You may only use this file for private study, scholarship, or research. #
#------------------------------------------------------------------------------#



Michelle Branch
You Get Me
Transcribed By Cliff Wang 

Note : you must listen to the song for the rythm. This is a very good song and
you some parts may be tricky. Feel free to improvise and make it sound better 
or the way you want it to sound. 

 Verse 1st time						     Verse 2nd time
G--7----6----4------------------------7-----7-----7-|7--8-9---6-6/7-4---4/6-
D-----------------7---5-------5---7-9---7-9---7-9---|------------------------
A------------------------5h7------------------------|------------------------
E---------------------------------------------------|------------------------

				    Pre-chorus 			Chorus
---------------------------|-------------------------|-----------------------
7---5--------5--7-8-7-5----|-------------------------|-----------------------
--------5h7-------------7--|-7--7/9----------7-7/9---|--5--75---------------
---------------------------|--------5---5-5---------5|---------3-3--0-3/5-

-----------------------------------------------------------------------------
-----------------------------------------------------------------------------
---5--75---------------------5--75-------------------7---97----97-7----5-
5---------3-3--0-3/5---5-5---------3-3--0-3/5--5-----------5--------5----

				Verse 3rd time			   Verse 4th 
-7h9-7----7-----------|-------------------------------------------|----------
------7h9---9-7-------|--------------------------5h7-5---5--------|-----7h9--
----------------9-7-5-|-5----4----2--------------------7---7-7/5--|--5-------
----------------------|----------------5---5/3-3------------------|----------

					  Pre-chorus
----------------------------------------|------------9h11--------------------
----------------------------------------|----------9-------------------------
-4-4/53--3---------------0-1-0-------7-|-7---7-7-----------------5-4---7--7-
------------5-53--3-3--3-------3-0-----|-----------------5--5-5-----5-------

		  Chorus
-----------------|---------------------------------------------------9-9-9---
-----------------|--------------------------------------------------------9--
9-10/5--------4-5|-5--75-----------------5--75------------------7--------7-
------5-5-5-7----|--------3-3--0-3/5--5--------3-3--0-3/5--5-------------

					      Solo
--------------9-9-9-9h11-9------------7-7-7--|-------------------------------
---7-7-7-------------------9---------------7-|-------------------------------
--------7--7----------------0--5---5--------5|-5-4---4-2---2-0--0------------
5--------5-----------------------------------|-------------------3--3----3-3-

			Pre-Chorus
----------------|---9-9-9------------------9-9-9-9h11------------------------
----------------|--------9----7-7-7------------------9-----------------------
----------------|-7-------7--------5h7---7------------0--0-0----0---0-0-----4
-3--3--3-3-5-3--|-----------5---------5----------------------------------5-7-

Chorus
|----------------------------------------------------------------------------
|----------------------------------------------------------------------------
|5--75-----------------5--75----------------7-5--75-----------------5--75
|------3-3--0-3/5--5--------3-3--0-3/5--5---------3-3--0-3/5--5--------

--------------------------------------------------------------------9-9-9----
---------------------------------------------------------7-7-7-----------9---
----------------5--75----------------7---7-7-7-7h9-7/5-------7---7-------7--
3-3--0-3/5--5-------3-3--0-3/5--5------------------5-------5-------------

   Ending (Hold Last Note)
--|--------------------------------------------------------------------------
--|-------------------------------5--7-8-7-5---------------------------------
--|-5-5---4-4---2-2-------------------------7-5------------------------------
-5|------------------5-5--3---3-3--------------------------------------------


Текст, аккорды и табулатура для песни "You Get Me", исполняет "Branch Michelle".
Используемые в песне аккорды можно найти в разделе Как брать аккорды. Аккорды для шестиструнной гитары. Другие песни можно найти на нашем сайте, воспользовавшись алфавитным указателем вверху страницы.


Слушать онлайн You Get Me


Michelle BranchYou Get Me на Яндекс.Музыке


 
Ошибка в тексте? Выделите ошибку и нажмите Ctrl+Enter