Tabbed by Darlene J.
email me at [email protected]
Artist- Michelle Branch
Song - Goodbye to you(radio version and leno version)

This has tabs for the 2nd guitarist which is played by Brad. 
I will be posting up Michelle's and Brad's part. This is what they played
on Jay leno.Brad uses light distortion and a wah-wah pedal.Remember michelle
does some hammer on's.

The radio verison is played with a capo on the first fret
and the live version is played without a capo.
Chords:
    C    D  G   G/Gb  Em/D   Dsus4/E   Gmaj   Em/C
E|--3----5--3----3------3------3--------7------0---------------
B|--3----5--3----3------3------3--------8------1---------------
G|--0----0--0----0------0------2--------7------0---------------
D|--2----4--0----0------2------2--------x------2---------------
A|--3----5--2----0------2------0--------x------2---------------
E|--x----X--3----2------0------x--------x------x---------------

Verse:
Michelle's part (figure out stumming pattern)
   C       D     G    D G
E|-3-3-3-3-5-5-3-333--3-3--------------------------||
B|-3-3-3-3-5-5-3-333--3-3--------------------------||
G|-0-0-0-0-0-0-0-000--0-0--------------------------||
D|-0h2-2-2-4-4-0-000--2-0--------------------------||
A|-3-3-3-3-5-5-0h222--3-2--------------------------||
E|-X-X-X-X-X-X-3-333--X-3--------------------------||

C              D              G  (QUICK CHANGE DOWN TO C AND BACK TO G)
Of all the things I beleived in
I just wannna get it over with
Tears form beind my eyes
G     G/Gb        Em/D
but i do not cry 
Dsus4/E                      C
counting the days that pass me by

(Repeat Michelle's part)
(The band comes in)
Brad's Part:
Wah-wah pedal is on
E|-------------------------------------------------------------||
B|-------3----------5--------------3---------------------------||
G|---------0----------0---------------0------------------------||
D|----2----------4--------------0----------2-------------------||
A|--3----------5-------------2-------------3---2---------------||
E|------------------------3--------------------3---------------||
I've been searching deep down in my soul
words that i'm hearing are starting to get old
feels like im starting 
G   G/Gb  Em/D
all over again
Dsus4/E                       C
the last three years were just pretend
C
and i said

Chorus:
(Brad's part has light distortion, he plays what michelle plays which is...)
G   G/Gb  Em/D   C
Goodbye to you
Goodbye to everything i thought i knew
you were the one i loved
Dsus4/E                        C(do the hammer on with your 2nd finger)
the one thing that i tried to hold on too
(Brad's part..when michelle sings the one thing that i tried to hold on too he plays)
(just slide back and fourth till michelle says too)
E|---------------||
B|---------------||
G|---------------||
D|---------------||
A|-3/5 ----------||
E|---------------||

leading into the 2nd verse Brad plays this little riff with light distortion
E|-7------7---5------5-----------3---------------------------||
B|---8----------8--------0-----------------------------------||
G|-----7----------7---------5--------------------------------||
D|----------------------------5------------------------------||
A|-----------------------------------------------------------||
E|-----------------------------------------------------------||


Verse:
And i still get lost in your eyes
and it seems that i can't live a day without you
closing my eyes
and you chase my thoughts away
to a place where i am blinded by the light
but it's not right

 
Chorus:
Goodbye to you
Goodbye to everything i thought i knew
you were the one i loved
the one thing that i tried to hold on too

Bridge:
Leading into the bride 
Brad plays this twice with light distortion
E|-7------7---5------5-----------3---------------------------||
B|---8----------8--------0-----------------------------------||
G|-----7----------7---------5--------------------------------||
D|----------------------------5------------------------------||
A|-----------------------------------------------------------||
E|-----------------------------------------------------------||
after playing that he does this little riff
E|------------------||
B|------------------||
G|--7h8-7p0---------||
D|------------------||
A|------------------||
E|------------------||
(Michelle's part is)figure out the strumming pattern
   Gmaj                C
E|--7-7-7-7h8-7-------3--3--------------------------------------||
B|--8-8-8-8---8-------3--3--------------------------------------||
G|--7-7-7-7---7-------0--0--------------------------------------||
D|--------------------2--2--------------------------------------||
A|--------------------3--3--------------------------------------||
E|--------------------x--x--------------------------------------||
(when michelle strums the C chord, Brad Strums C once)
 
And it hurts to want everything
and nothing at the same time
i want whats yours and I
want what's mine
i want you but i'm not giving in this time

Chorus:
Goodbye to you
Goodbye to everything i thought i knew
you were the one i loved
the one thing that i tried to hold on too

End:
Leading into the end
Brad plays this twice with light distortion
E|-7------7---5------5-----------3---------------------------||
B|---8----------8--------0-----------------------------------||
G|-----7----------7---------5--------------------------------||
D|----------------------------5------------------------------||
A|-----------------------------------------------------------||
E|-----------------------------------------------------------||
(Michelle's part is)figure out the strumming pattern
   Gmaj                C
E|--7-7-7-7h8-7-------3--3--------------------------------------||
B|--8-8-8-8---8-------3--3--------------------------------------||
G|--7-7-7-7---7-------0--0--------------------------------------||
D|--------------------2--2--------------------------------------||
A|--------------------3--3--------------------------------------||
E|--------------------x--x--------------------------------------||
(when michelle strums the C chord, Brad Strums C once)

And when the stars fall i will lie awake
D            (End on Em/C)
you are my shooting star


Текст, аккорды и табулатура для песни "Goodbye To You", исполняет "Branch Michelle".
Используемые в песне аккорды можно найти в разделе Как брать аккорды. Аккорды для шестиструнной гитары. Другие песни можно найти на нашем сайте, воспользовавшись алфавитным указателем вверху страницы.


Слушать онлайн Goodbye To You


Michelle BranchGoodbye To You на Яндекс.Музыке


 
Ошибка в тексте? Выделите ошибку и нажмите Ctrl+Enter