#----------------------------------PLEASE NOTE--------------------------------#
#This file is the author's own work and represents their interpretation of the#
#song. You may only use this file for private study, scholarship, or research.#
#-----------------------------------------------------------------------------#
#-- File created with Instab - http://www.pconline.com/~smcarey/instab.html --#
#-----------------------------------------------------------------------------#

Author/Artist: Michelle Branch
Title: Everywhere
Album: ?
Transcribed by: Josiah 
Email: [email protected]

It may not be right, but it sounds it..

------------------------------------------------------------------------------
-----------------------4------------------------------------------------------
-----6---------6--------------------------------------------------------------
-------8---------6-------6----------------------------------------------------
---8-----------------6--------------------------------------------------------
-6-------6h8/9-----4----------------------------------------------------------
 Intro                                                                        

------------------------------------------------------------------------------
------------------------------------------------------------------------------
-------6-6--------------------------------------------------------------------
-8-8---6-6---6-6---6-6--------------------------------------------------------
-8-8---4-4---6-6---6-6--------------------------------------------------------
-6-6---------4-4---4-4--------------------------------------------------------
 Verse                                                                        

------------------------------------------------------------------------------
------------------------------------------------------------------------------
------6-6---------------------------------------------------------------------
-8-8--6-6--6-6-6-6------------------------------------------------------------
-8-8--4-4--6-6-6-6------------------------------------------------------------
-6-6-------4-4-4-4------------------------------------------------------------
 Chorus                                                                       

------------------------------------------------------------------------------
-12-10-9-10-12-10-9-12-12-14-15-17-19-19-17-15-14-15-14-15-17----------------
------------------------------------------------------------------------------
------------------------------------------------------------------------------
------------------------------------------------------------------------------
------------------------------------------------------------------------------
 Fill (I know it's not totally right, but it sounds close)                    

-----4------------------------------------------------------------------------
------------------------------------------------------------------------------
-------6----------------------------------------------------------------------
---6--------------------------------------------------------------------------
-4----------------------------------------------------------------------------
------------------------------------------------------------------------------
 Last verse                                                                   

-----4-------4-------4--------------------------------------------------------
---------------------4--------------------------------------------------------
-------6-------6-----6--------------------------------------------------------
---6-------6-----6---6--------------------------------------------------------
-4-------4-----------4--------------------------------------------------------
------------------------------------------------------------------------------
 Outro        End on ^                                                        




Текст, аккорды и табулатура для песни "Everywhere", исполняет "Branch Michelle".
Используемые в песне аккорды можно найти в разделе Как брать аккорды. Аккорды для шестиструнной гитары. Другие песни можно найти на нашем сайте, воспользовавшись алфавитным указателем вверху страницы.


Слушать онлайн Everywhere


Michelle BranchEverywhere на Яндекс.Музыке


 
Ошибка в тексте? Выделите ошибку и нажмите Ctrl+Enter