Michelle Branch
Tabbed by Pamela Lama

Author/Artist:Michelle Branch
Title: Breathe
Album: Hotel Paper


listen for strumming pattern.

Intro/Verse
E---------------------------------------------------------------------
B---------------------------------------------------------------------
G---------------------------------------------------------------------
D------11-11--9-11-11-11-11-11---9-11-------11-11-11-11-11-11-11-11---
A-------9--9--9--9--9--9--9--9---9--9--------9--9--9--9--9--9--9--9---
E--7-7--7--7--7--7--7--7--7--7---7--7---6-6--6--6--6--6--6--6--6--6---

I've been driving for an hour, just talking to the rain
say I've been driving crazy and its keeping you awake

( just strum the intro  chords here )          
so just give me one good reason tell me why i should stay
cuz i dont want to waste another moment saying things we never meant to say

Pre-chorus

E---------------------------------------------------------------------
B---------------------------------------------------------------------
G--6--8--8-4-4-4-4-4-4-4---------------6--8--8-4-4-4-4-6-6-6-6--------
D--6--8--8-4-4-4-4-4-4-4----(x2)-------6--8--8-4-4-4-4-6-6-6-6--------
A--4--6--6-2-2-2-2-2-2-2---------------4--6--6-2-2-2-2-4-4-4-4--------
E---------------------------------------------------------------------

And I take it just a little bit
I Hold my breath and count to 10
I Been waiting for a chance to let you in




          C#   D#     B                  F# 
If I just breathe    and fill the space between 
            C#           
ill know everything is alright
     D#     B                      F# 
Breathe      every little piece of me 
              C#          D#
you'll see everything is alright
 C#        B
If I just Breathe


Verse 2
Well its all so overrated 
In not saying how you feel
so you end up watching chances fade
and wondering whats real

Pre-Chours
and I give you just a little time
I wonder if you realize
I been waiting til i see it in your eyes


Bridge ( I think this is the Pre-chorus just finger picked...but I'm not sure..)
Breathe....
So I whisper in the dark
Hoping you'll hear me
Do you hear me?


Outro
            C#            D#         B            F# 
I've been driving for an hour just talkin to the rain




Thats ALL i got now....So yeah....


Текст, аккорды и табулатура для песни "Breathe", исполняет "Branch Michelle".
Используемые в песне аккорды можно найти в разделе Как брать аккорды. Аккорды для шестиструнной гитары. Другие песни можно найти на нашем сайте, воспользовавшись алфавитным указателем вверху страницы.


Слушать онлайн Breathe


Michelle BranchBreathe на Яндекс.Музыке


 
Ошибка в тексте? Выделите ошибку и нажмите Ctrl+Enter