-------------------------------------------------------------------------------------------
Bracket - Everyone Is Telling Me I'll Never Win If I Fall In Love With A Girl From Marin
-------------------------------------------------------------------------------------------
Tabbed by Rob Semmeling ([email protected])
I'm not sure about the After-Chorus (It's probably incorrect but I don't know it)

Main Chords:

    e   Bb  B   C#  F#  G
e-|-----------------------------|
B-|-----------------------------|
G-|-----3---4---6---------------|
D-|-2---3---4---6---4---5-------|
A-|-2---1---2---4---4---5-------|
E-|-0---------------2---3-------|

---------
Intro
---------

Fast Bass Line, guitar kix in:

   Bb B B
e|-------------------------------|
B|-------------------------------|
G|-3/-4-4------------------------|
D|-3/-4-4------------------------|
A|-1/-2-2------------------------|
E|-------------------------------|

----------
Verse 1
----------


(n.c.)  B       F#             G       B
Daddy's girl is shopping for a perfect day
        B         F#            G         B
And her words are full of empty things to say

-----------
Pre-Chorus
-----------
                 e     F#
Her shit stained smile
           G     B
Is out of style
               e     F#
It's been that way
             G     B
For quite a while

---------
Chorus
---------

     C#             e             B     F#
Everyone is telling me I'll never win
     C#                e           B       F#     e (hold)
If I fall in love with a girl from Marin

-------------
After-Chorus
-------------

e |  F  |  F#  |  G  |  G#  |  A  |  D  |  Eb
e |  F  |  F#  |  G  |  G#  |  A  |  Bb |  B

----------
Verse 2
----------

Daddy's girl has overflowing confidence
And her world is filling up with hollow friends

-----------
Pre-Chorus
-----------

Her shit stained smile
Is out of style
It's been that way
For quite a while

---------
Chorus
---------

Everyone is telling me I'll never win,
If I fall in love with a girl from Marin

-------------
After-Chorus
-------------

---------
Bridge
---------

Some Palm-muting here:

B |  B  |  G#  |   e

Guitar 2 plays a riff, sorry I don't know it
It's probably something on the e and B strings

---------
Verse 3
---------

Daddy's girl is growing colder every day
And our worlds are never gonna be the same

-----------
Pre-Chorus
-----------

Her shit stained smile
Is out of style
It's been that way
For quite a while

---------
Chorus
---------

Everyone is telling me I'll never win,
If I fall in love with a girl from Marin

-------------
After-Chorus
-------------

(End On B)


Текст, аккорды и табулатура для песни "Everyone Is Telling Me", исполняет "Bracket".
Используемые в песне аккорды можно найти в разделе Как брать аккорды. Аккорды для шестиструнной гитары. Другие песни можно найти на нашем сайте, воспользовавшись алфавитным указателем вверху страницы.


 
Ошибка в тексте? Выделите ошибку и нажмите Ctrl+Enter