---------------------------------------------------------------------------
SONG NAME: High Wire Escape Artist - Band Name: Boy Sets Fire
-------------------------------------------------------------------------------
Tabbed by: Tim Brooks
Email: [email protected]

One dash between notes = 16th note  Two dashes = 8th note  etc.

| I used the symbol ~ to indicate where to hold the note double the amount
of the normal timing indicated by the dashes.

Tuning: Guitar 1 is in Drop C.  Guitar 2 is in drop D.  

                                                     Play this part 2x
   Intro  2x  Guitar 1  Clean                          Both times   
D|-----------------------|-----------------------|-----------------------|
A|-----------------------|-----------------------|1--1--1--1--1--1--1--1-|
F|-----------------------|0--0--0--0--0--0--0--0-|-----------------------|
C|2--2--2--2--2--2--2--2-|-----------------------|-----------------------|
G|-----------------------|-----------------------|-----------------------|
C|-----------------------|-----------------------|-----------------------|

   Intro  2x  Guitar 2  Clean   
E|--------------------------------|--------------------------------|
B|--------------------------------|--------------------------------|
G|--------------------------------|--------------------------------|
D|--------------------------------|--------------------------------|
A|5-5-5-5-5-5-5-5-5-5-5-5-5-5-3-5-|6-5-5-5-5-5-5-5-5-5-5-5-5-5-3-5-|
D|--------------------------------|--------------------------------|

   Intro  Guitar 2  Cont.  
E|--------------------------------|--------------------------------|
B|--------------------------------|--------------------------------|
G|--------------------------------|--------------------------------|
D|--------------------------------|--------------------------------|
A|6-5-5-5-5-5-5-5-5-5-5-5-5-5-3-5-|6-5-5-5-5-5-5-5-5-6-6-6-6-6-6-6-|
D|--------------------------------|--------------------------------|

   Pre-Verse 2x Guitar 1              Pre-Verse 2x  Guitar 2    
     Heavy Distortion                    Heavy Distortion
D|--------------------------|       E|--------------------------|
A|--------------------------|       B|--------------------------|
F|--------------------------|       G|7--5-7--8-7--7--5-7--8-7--|
C|2--0-2--3-2--2--0-2--3-2--|       D|7--5-7--8-7--7--5-7--8-7--|
G|2--0-2--3-2--2--0-2--3-2--|       A|5--3-5--6-5--5--3-5--6-5--|
C|2--0-2--3-2--2--0-2--3-2--|       D|--------------------------|

  Verse  Guitar 1
D|-------------------------|-------------------------|---------|
A|-------------------------|-------------------------|---------|
F|-------------------------|-------------------------|---------|
C|2-~~~2x-2x--2x-2x-2x-2x--|2-~~~2x-2x--2x-2x-2x-2x--|5-~~~~~~5|
G|2-~~~2x-2x--2x-2x-2x-2x--|2-~~~2x-2x--2x-2x-2x-2x--|5-~~~~~~5|
C|2-~~~2x-2x--2x-2x-2x-2x--|2-~~~2x-2x--2x-2x-2x-2x--|5-~~~~~~5|


  Verse  Guitar 1   Cont.
D|-------------------------|
A|-------------------------|
F|-------------------------|
C|2-~~~2x-2x--2x-2x-2x-2x--|
G|2-~~~2x-2x--2x-2x-2x-2x--|
C|2-~~~2x-2x--2x-2x-2x-2x--|


  Verse  Guitar 1  Cont.
D|------------------|------------------|----------|----------------------|
A|------------------|------------------|----------|---------3-5--6-5--5--|
F|------------------|------------------|----------|----------------------|
C|2-~~~2-2--2-2-2-2-|2-~~~2-2--2-2-3-2-|5-~~~~~~5-|2---------------------|
G|2-~~~2-2--2-2-2-2-|2-~~~2-2--2-2-3-2-|5-~~~~~~5-|2---------------------|
C|2-~~~2-2--2-2-2-2-|2-~~~2-2--2-2-3-2-|5-~~~~~~5-|2---------------------|

  Verse  Guitar 2 
E|--------------------------|--------------------------|
B|--------------------------|6-------------------------|
G|7--5-7--8-7--7--5-7--8-7--|---5-7--8-7--7--5-7--8-7--|
D|-0---------0--0---------0-|-0---------0--0---------0-|
A|--------------------------|--------------------------|
D|--------------------------|--------------------------| 

 Verse  Guitar 2  Cont.
E|6-------------------------|--------------------------|
B|--------------------------|6-------------------------|
G|---5-7--8-7--7--5-7--8-7--|---5-7--8-7--7--5-7--8-7--|
D|-0---------0--0---------0-|-0---------0--0---------0-|
A|--------------------------|--------------------------|
D|--------------------------|--------------------------| 

  Verse  Guitar 2  Cont.
E|--------------------------|--------------------------|
B|--------------------------|6-------------------------|
G|7--5-7--8-7--7--5-7--8-7--|---5-7--8-7--7--5-7--8-7--|
D|-0---------0--0---------0-|-0---------0--0---------0-|
A|--------------------------|--------------------------|
D|--------------------------|--------------------------| 

 Verse  Guitar 2  Cont.
E|6-------------------------|-------------------------|
B|--------------------------|6------------------------|
G|---5-7--8-7--7--5-7--8-7--|---5-7--8-7--5--7--8--7--|
D|-0---------0--0---------0-|-0---------0--0--0--0--0-|
A|--------------------------|-------------------------|
D|--------------------------|-------------------------| 

   Chorus  2x  Guitar 1  Strum
D|---------|---------|---------|8-8-8-8-7-7-7-7----------------|
A|---------|---------|---------|---------------6-6-6-6-6-6-6-6-|
F|---------|---------|5-~~~~~~~|-------------------------------|
C|2-~~~~~~~|5-~~~~~~~|5-~~~~~~~|-------------------------------|
G|2-~~~~~~~|5-~~~~~~~|3-~~~~~~~|-------------------------------|
C|2-~~~~~~~|5-~~~~~~~|---------|-------------------------------|

   Chorus  2x  Guitar 2 
E|--------------------------------|--------------------------------|
B|--------------------------------|--------------------------------|
G|7-7-7-7-7-7-7-7-7-7-7-7-7-7-5-7-|8-7-7-7-7-7-7-7-7-7-7-7-7-7-5-7-|
D|--------------------------------|--------------------------------|
A|--------------------------------|--------------------------------|
D|--------------------------------|--------------------------------|

  Chorus  Cont.  Guitar 2 
E|--------------------------------|--------------------------------|
B|--------------------------------|--------------------------------|
G|8-7-7-7-7-7-7-7-7-7-7-7-7-7-5-7-|8-7-7-7-7-7-7-7-7-8-8-8-8-8-8-8-|
D|--------------------------------|--------------------------------|
A|--------------------------------|--------------------------------|
D|--------------------------------|--------------------------------|

Play Pre-Verse 2x

Play Verse

Play Chorus 2x

  Guitar 1   Clean
D|---------|------------------0-----0-------------------------------|
A|---------|-------3----------------------|0--0-------0--------0--|
F|---------|---0----------0h2-2--0-------0|------0-------0--------|
C|2-~~~~~~~|----------------------------2-|-----------------------|
G|2-~~~~~~~|---------------------------2--|-----------------------|
C|2-~~~~~~~|2---------2---------------2---|---------2-------2-----|
                         
                            Riff 1  Guitar 1
                            Play these 2 measures 8x w/distortion
D|----------------------|---------------------|----------------------|
A|------3---------------|------0------0----0--|---0------------------|
F|---0-----0h2-2--------|---------------------|------0-----2---------|
C|----------------------|---2------2----------|---------------3----3-|
G|----------------------|---------------------|----------------------|
C|2---------------------|---------------------|----------------------|


  Riff 1  Guitar 2  8x  w/distortion  
E|---------------------------|--------------------------|
B|---------------------------|-------1------3-----------|
G|----2---------2------------|-----------------3------3-|
D|0-0----3--0-0----3--0-0-3--|0-0-3-----0-0-------0-0---|
A|0-0-------0-0-------0-0----|0-0-------0-0-------0-0---|
D|0-0-------0-0-------0-0----|0-0-------0-0-------0-0---|

Chorus 2x

Pre-Verse 4x

  Outro
E|-------------------------------------|
B|-------------------------------------|
G|-------------------------------------|
D|----3--3---3---3--3---3---3--3 etc.--|
A|-------------------------------------|
D|-------------------------------------|


| /  slide up
|   slide down
| h  hammer-on
| p  pull-off
| +  harmonic
| x  Mute note


Текст, аккорды и табулатура для песни "High Wire Escape Artist", исполняет "Boy Sets Fire".
Используемые в песне аккорды можно найти в разделе Как брать аккорды. Аккорды для шестиструнной гитары. Другие песни можно найти на нашем сайте, воспользовавшись алфавитным указателем вверху страницы.


Слушать онлайн High Wire Escape Artist


BoysetsfireHigh Wire Escape Artist на Яндекс.Музыке


 
Ошибка в тексте? Выделите ошибку и нажмите Ctrl+Enter