e|----------------------------------------
B|----------------------------------------
G|----------------------------------------
D|----4--4-----4------4---4------4---4----   2X'S
A|-2-2--2---------------------------------
E|---------4-4----0-0---0----2-2---2------



GUITAR 1 VERSE 1
e|----------------------------------------
B|----------------------------------------
G|-44444444-------------------------------
D|-44444444-66666666-44444444-22222222----      4X
A|-22222222-66666666-44444444-22222222----
E|----------44444444-22222222-00000000----

GUITAR 2 Verse 1
e|--------2---
B|-0----------
G|------------             16X
D|------------
A|---2--------
E|------------

BRIDGE BOTH GUITARS
e|--------------------------------------------
B|--------------------------------------------
G|-444444-6666--------6666--------------------
D|-444444-xxxx-444444-xxxx-22222222-1---------      
A|-222222-4444-444444-4444-22222222----2--1---
E|-------------222222------00000000-----------

GUITAR 1 VERSE 2
e|----------------------------------------
B|----------------------------------------
G|-44444444-------------------------------
D|-44444444-66666666-44444444-22222222----      4X
A|-22222222-66666666-44444444-22222222----
E|----------44444444-22222222-00000000----

GUITAR 2 Verse 2
e|--------2---
B|-0----------
G|------------             16X
D|------------
A|---2--------
E|------------

CHORUS BOTH GUITARS
e|---------------------------------------
B|---------------------------------------
G|-44444444------------------------------
D|-44444444-66666666-4444444444444444----      4X
A|-22222222-66666666-4444444444444444----
E|----------44444444-2222222222222222----

INTERLUDE BOTH GUITARS
e|-------------------------
B|-------------------------
G|-44-88-------999999999---
D|-44-88-88-99-xxxxxxxxx---
A|-22-66-88-99-777777777---
E|-------66-77-------------

e|-------------------------
B|-------------------------
G|-44-88----88-999999999---
D|-44-88-88-88-xxxxxxxxx---
A|-22-66-88-66-777777777---
E|-------66----------------

INTERLUDE 2 GUITAR 1
e|---------------------
B|-----------2--0------
G|-4----4--------------
D|----4--------------4-        8X
A|---------------------
E|---------------------

INTERLUDE 2 GUITAR 2
e|----------------------------------------
B|----------------------------------------
G|-44444444-------------------------------
D|-44444444-66666666-44444444-22222222----      2X
A|-22222222-66666666-44444444-22222222----
E|----------44444444-22222222-00000000----

CHORUS BOTH GUITARS
e|-------------------------------------
B|-------------------------------------
G|-44444444----------------------------
D|-44444444-66666666-4444444444444444--        4X
A|-22222222-66666666-4444444444444444--
E|----------44444444-2222222222222222--

OUTRO BOTH GUITARS
e|-------------------------------------------
B|-------------------------------------------
G|-444444-6666--------6666-------------------
D|-444444-xxxx-444444-xxxx-22222222-1--------      2X
A|-222222-4444-444444-4444-22222222----2--1--
E|-------------222222------00000000----------


Текст, аккорды и табулатура для песни "World Outside", исполняет "Boxcar Racer".
Используемые в песне аккорды можно найти в разделе Как брать аккорды. Аккорды для шестиструнной гитары. Другие песни можно найти на нашем сайте, воспользовавшись алфавитным указателем вверху страницы.


 
Ошибка в тексте? Выделите ошибку и нажмите Ctrl+Enter