Alright i'm about 100% this is right, this is what they played on leno.
This song is really easy. If you have any corrections, etc. email me at
[email protected]

Guitar 1 - Tom
Guitar 2 - David

Intro
   
    Gtr I
||----------------------------------------|
||o---------------------------------------|
||--4-(4)-4-4-(4)-4-4-(4)-4-4-(4)-4-4-4-4-|
||--4-(4)-4-4-(4)-4-4-(4)-4-4-(4)-4-4-4-4-|
||o-2-(2)-2-2-(2)-2-2-(2)-2-2-(2)-2-2-2-2-|
||--x-(x)-x-x-(x)-x-x-(x)-x-x-(x)-x-x-x-x-|
|
|   Gtr II
||----------------------------------------|
||o---------------------------------------|
||--8-(8)-8-8-(8)-8-8-(8)-8-8-(8)-8-8-8-8-|
||--x-(x)-x-x-(x)-x-x-(x)-x-x-(x)-x-x-x-x-|
||o-6-(6)-6-6-(6)-6-6-(6)-6-6-(6)-6-6-6-6-|
||--x-(x)-x-x-(x)-x-x-(x)-x-x-(x)-x-x-x-x-|


|-----------------------------------------|
|-----------------------------------------|
|-4-(4)-4-4-(4)-4-4-(4)-4-4-(4)-4-4-4-4---|
|-4-(4)-4-4-(4)-4-4-(4)-4-4-(4)-4-4-4-4---|
|-x-(x)-x-x-(x)-x-x-(x)-x-x-(x)-x-x-x-x---|
|-2-(2)-2-2-(2)-2-2-(2)-2-2-(2)-2-2-2-2---|
|
|-----------------------------------------|
|-----------------------------------------|
|-6-(6)-6-6-(6)-6-6-(6)-6-6-(6)-6-6-6-6---|
|-x-(x)-x-x-(x)-x-x-(x)-x-x-(x)-x-x-x-x---|
|-4-(4)-4-4-(4)-4-4-(4)-4-4-(4)-4-4-4-4---|
|-x-(x)-x-x-(x)-x-x-(x)-x-x-(x)-x-x-x-x---|


|---------------------------------------|
|---------------------------------------|
|-4-(4)-4-4-(4)-4-4-(4)-4-4-(4)-4-4-4-4-|
|-4-(4)-4-4-(4)-4-4-(4)-4-4-(4)-4-4-4-4-|
|-x-(x)-x-x-(x)-x-x-(x)-x-x-(x)-x-x-x-x-|
|-4-(4)-4-4-(4)-4-4-(4)-4-4-(4)-4-4-4-4-|
|
|---------------------------------------|
|---------------------------------------|
|-4-(4)-4-4-(4)-4-4-(4)-4-4-(4)-4-4-4-4-|
|-x-(x)-x-x-(x)-x-x-(x)-x-x-(x)-x-x-x-x-|
|-2-(2)-2-2-(2)-2-2-(2)-2-2-(2)-2-2-2-2-|
|-x-(x)-x-x-(x)-x-x-(x)-x-x-(x)-x-x-x-x-|


|-------------------------------------------------||
|------------------------------------------------o||
|-4-(4)-4-4-(4)-4-4-(4)-4-(4)-4-4-(4)-4-4-(4)-----||
|-4-(4)-4-4-(4)-4-4-(4)-4-(4)-4-4-(4)-4-4-(4)-----||
|-2-(2)-2-2-(2)-2-2-(2)-x-(x)-x-x-(x)-x-x-(x)----o||
|-x-(x)-x-x-(x)-x-x-(x)-2-(2)-2-2-(2)-2-2-(2)-----||
|                                                           x2
|-------------------------------------------------||
|------------------------------------------------o||
|-6-(6)-6-6-(6)-6-6-(6)-3-(3)-3-3-(3)-3-3-(3)-----||
|-x-(x)-x-x-(x)-x-x-(x)-x-(x)-x-x-(x)-x-x-(x)-----|| 
|-4-(4)-4-4-(4)-4-4-(4)-1-(1)-1-1-(1)-1-1-(1)----o||
|-x-(x)-x-x-(x)-x-x-(x)-x-(x)-x-x-(x)-x-x-(x)-----||


   Verse
    Gtr II
||--------------------------------------------|
||o-------------------------------------------|
||--4-(4)-4-4-(4)-4-4-(4)-4-4-(4)-4-4-4-4-(4)-|
||--4-(4)-4-4-(4)-4-4-(4)-4-4-(4)-4-4-4-4-(4)-|
||o-2-(2)-2-2-(2)-2-2-(2)-2-2-(2)-2-2-2-2-(2)-|
||--x-(x)-x-x-(x)-x-x-(x)-x-x-(x)-x-x-x-x-(x)-|


|--------------------------------------------|
|--------------------------------------------|
|-4-(4)-4-4-(4)-4-4-(4)-4-4-(4)-4-4-4-4-(4)--|
|-4-(4)-4-4-(4)-4-4-(4)-4-4-(4)-4-4-4-4-(4)--|
|-x-(x)-x-x-(x)-x-x-(x)-x-x-(x)-x-x-x-x-(x)--|
|-2-(2)-2-2-(2)-2-2-(2)-2-2-(2)-2-2-2-2-(2)--|


  Gtr I
|-------------------------------------------|
|-------------------------------------------|
|-4-(4)-4-4-(4)-4-4-(4)-4-4-(4)-4-4-4-4-(4)-|
|-4-(4)-4-4-(4)-4-4-(4)-4-4-(4)-4-4-4-4-(4)-|
|-x-(x)-x-x-(x)-x-x-(x)-x-x-(x)-x-x-x-x-(x)-|
|-4-(4)-4-4-(4)-4-4-(4)-4-4-(4)-4-4-4-4-(4)-|


                                               
|----------------------------------------------||
|---------------------------------------------o||
|-4-(4)-4-4-(4)-4-4-(4)-4-4-(4)-4-4-4-4-(4)----||       
|-4-(4)-4-4-(4)-4-4-(4)-4-4-(4)-4-4-4-4-(4)----||      x4
|-x-(x)-x-x-(x)-x-x-(x)-x-x-(x)-x-x-x-x-(x)---o||
|-2-(2)-2-2-(2)-2-2-(2)-2-2-(2)-2-2-2-2-(2)----||


   Chorus
    Gtr I
||--------------------------------------------|
||o-------------------------------------------|
||--4-(4)-4-4-(4)-4-4-(4)-4-4-(4)-4-4-4-4-(4)-|
||--4-(4)-4-4-(4)-4-4-(4)-4-4-(4)-4-4-4-4-(4)-|
||o-2-(2)-2-2-(2)-2-2-(2)-2-2-(2)-2-2-2-2-(2)-|
||--x-(x)-x-x-(x)-x-x-(x)-x-x-(x)-x-x-x-x-(x)-|
|
|   Gtr II
||--------------------------------------------|
||o-0----------0----2-----0---(0)-------------|
||--------4-----------------------------------|
||--------------------------------------------|
||o-------------------------------------------|
||--------------------------------------------|


|--------------------------------------------|
|--------------------------------------------|
|-4-(4)-4-4-(4)-4-4-(4)-4-4-(4)-4-4-4-4-(4)--|
|-4-(4)-4-4-(4)-4-4-(4)-4-4-(4)-4-4-4-4-(4)--|
|-x-(x)-x-x-(x)-x-x-(x)-x-x-(x)-x-x-x-x-(x)--|
|-2-(2)-2-2-(2)-2-2-(2)-2-2-(2)-2-2-2-2-(2)--|
|
|--------------------------------------------|
|-0----------0----2-----0---(0)--------------|
|-------4------------------------------------|
|--------------------------------------------|
|--------------------------------------------|
|--------------------------------------------|

|-------------------------------------------|
|-------------------------------------------|
|-4-(4)-4-4-(4)-4-4-(4)-4-4-(4)-4-4-4-4-(4)-|
|-4-(4)-4-4-(4)-4-4-(4)-4-4-(4)-4-4-4-4-(4)-|
|-x-(x)-x-x-(x)-x-x-(x)-x-x-(x)-x-x-x-x-(x)-|
|-4-(4)-4-4-(4)-4-4-(4)-4-4-(4)-4-4-4-4-(4)-|
|
|-------------------------------------------|
|-0----------0----2-----0---(0)-------------|
|-------4-----------------------------------|
|-------------------------------------------|
|-------------------------------------------|
|-------------------------------------------|


|----------------------------------------------||
|---------------------------------------------o||
|-4-(4)-4-4-(4)-4-4-(4)-4-4-(4)-4-4-4-4-(4)----||
|-4-(4)-4-4-(4)-4-4-(4)-4-4-(4)-4-4-4-4-(4)----||
|-x-(x)-x-x-(x)-x-x-(x)-x-x-(x)-x-x-x-x-(x)---o||
|-2-(2)-2-2-(2)-2-2-(2)-2-2-(2)-2-2-2-2-(2)----||
|                                                      x2
|----------------------------------------------||
|-0----------0----2-----0---(0)---------------o||
|-------4--------------------------------------||
|----------------------------------------------||
|---------------------------------------------o||
|----------------------------------------------||

Repeat Intro (play it only once this time)
Repeat Verse
Repeat Chorus

Interlude
     Gtr I
||----------------------------------------|
||o---------------------------------------|
||--8-(8)-8-8-(8)-8-8-(8)-8-8-(8)-8-8-8-8-|
||--x-(x)-x-x-(x)-x-x-(x)-x-x-(x)-x-x-x-x-|
||o-6-(6)-6-6-(6)-6-6-(6)-6-6-(6)-6-6-6-6-|
||--x-(x)-x-x-(x)-x-x-(x)-x-x-(x)-x-x-x-x-|
|
|    Gtr II
||----------------------------------------|
||o---------------------------------------|
||--4-(4)-4-4-(4)-4-4-(4)-4-4-(4)-4-4-4-4-|
||--4-(4)-4-4-(4)-4-4-(4)-4-4-(4)-4-4-4-4-|
||o-2-(2)-2-2-(2)-2-2-(2)-2-2-(2)-2-2-2-2-|
||--x-(x)-x-x-(x)-x-x-(x)-x-x-(x)-x-x-x-x-|


|-------------------------------------------||
|------------------------------------------o||
|-9-(9)-9-9-(9)-9-9-(9)-9-9-(9)-9-9-9-9-----||
|-x-(0)-x-x-(x)-x-x-(x)-x-x-(x)-x-x-x-x-----||
|-7-(7)-7-7-(7)-7-7-(7)-7-7-(7)-7-7-7-7----o||
|-0-(0)-0-0-(0)-0-0-(0)-0-0-(0)-0-0-0-0-----||
|                                                x2
|-------------------------------------------||
|------------------------------------------o||
|-4-(4)-4-4-(4)-4-4-(4)-4-4-(4)-4-4-4-4-----||
|-4-(4)-4-4-(4)-4-4-(4)-4-4-(4)-4-4-4-4-----||
|-x-(x)-x-x-(x)-x-x-(x)-x-x-(x)-x-x-x-x----o||
|-2-(2)-2-2-(2)-2-2-(2)-2-2-(2)-2-2-2-2-----||


|---------------------------------------|
|---------------------------------------|
|-8-(8)-8-8-(8)-8-8-(8)-8-8-(8)-8-8-8-8-|
|-x-(x)-x-x-(x)-x-x-(x)-x-x-(x)-x-x-x-x-|
|-6-(6)-6-6-(6)-6-6-(6)-6-6-(6)-6-6-6-6-|
|-x-(x)-x-x-(x)-x-x-(x)-x-x-(x)-x-x-x-x-|
|
|---------------------------------------|
|---------------------------------------|
|---------------------------------------|
|-6-(6)-6-6-(6)-6-6-(6)-6-6-(6)-6-6-6-6-|
|-6-(6)-6-6-(6)-6-6-(6)-6-6-(6)-6-6-6-6-|
|-4-(4)-4-4-(4)-4-4-(4)-4-4-(4)-4-4-4-4-|


|------------------------------------------|
|------------------------------------------|
|-9-(9)-9-9-(9)-9-9-(9)-9-9-(9)-9-9-9-9----|
|-x-(0)-x-x-(x)-x-x-(x)-x-x-(x)-x-x-x-x----|
|-7-(7)-7-7-(7)-7-7-(7)-7-7-(7)-7-7-7-7----|
|-0-(0)-0-0-(0)-0-0-(0)-0-0-(0)-0-0-0-0----|
|
|------------------------------------------|
|------------------------------------------|
|------------------------------------------|
|-4-(4)-4-4-(4)-4-4-(4)-4-4-(4)-4-4-4-4----|
|-4-(4)-4-4-(4)-4-4-(4)-4-4-(4)-4-4-4-4----|
|-2-(2)-2-2-(2)-2-2-(2)-2-2-(2)-2-2-2-2----|


|---------------------------------------|
|---------------------------------------|
|-8-(8)-8-8-(8)-8-8-(8)-8-8-(8)-8-8-8-8-|
|-x-(x)-x-x-(x)-x-x-(x)-x-x-(x)-x-x-x-x-|
|-6-(6)-6-6-(6)-6-6-(6)-6-6-(6)-6-6-6-6-|
|-x-(x)-x-x-(x)-x-x-(x)-x-x-(x)-x-x-x-x-|
|
|---------------------------------------|
|---------------------------------------|
|-4-(4)-4-4-(4)-4-4-(4)-4-4-(4)-4-4-4-4-|
|-4-(4)-4-4-(4)-4-4-(4)-4-4-(4)-4-4-4-4-|
|-2-(2)-2-2-(2)-2-2-(2)-2-2-(2)-2-2-2-2-|
|-x-(x)-x-x-(x)-x-x-(x)-x-x-(x)-x-x-x-x-|


|------------------------------------------|
|------------------------------------------|
|-6-(6)-6-6-(6)-6-6-(6)-6-6-(6)-6-6-6-6----|
|-x-(x)-x-x-(x)-x-x-(x)-x-x-(x)-x-x-x-x----|
|-4-(4)-4-4-(4)-4-4-(4)-4-4-(4)-4-4-4-4----|
|-x-(x)-x-x-(x)-x-x-(x)-x-x-(x)-x-x-x-x----|
|
|------------------------------------------|
|------------------------------------------|
|-4-(4)-4-4-(4)-4-4-(4)-4-4-(4)-4-4-4-4----|
|-4-(4)-4-4-(4)-4-4-(4)-4-4-(4)-4-4-4-4----|
|-x-(x)-x-x-(x)-x-x-(x)-x-x-(x)-x-x-x-x----|
|-2-(2)-2-2-(2)-2-2-(2)-2-2-(2)-2-2-2-2----|

Repeat Chorus (This time there is no Gtr II, tom plays it by himself)
Repeat the Chorus again with David playing also.


Текст, аккорды и табулатура для песни "There Is", исполняет "Boxcar Racer".
Используемые в песне аккорды можно найти в разделе Как брать аккорды. Аккорды для шестиструнной гитары. Другие песни можно найти на нашем сайте, воспользовавшись алфавитным указателем вверху страницы.


Слушать онлайн There Is


Box Car RacerThere Is на Яндекс.Музыке


 
Ошибка в тексте? Выделите ошибку и нажмите Ctrl+Enter