Piano Intro
e-------7---8---7--5------8--7-----------------------------}
b-8---8---7---5--7--3--8----7---5-8-3-7-8------------------}
g---7------------------0-7---------------------------------}
d-5-------4---2---4------0-4--2-2-0-4-4-5------------------}
a------------------5---------------------------------------}
e----------------------------------------------------------}


Intro Part 2
e----------------------------------------------------------}
b----------------------------------------------------------}
g----------------------------------------------------------}
d---5-5--4-4--2-2--4-4--5-5--4-4--2-2--4-4-----------------}
a----------------------------------------------------------}
e----------------------------------------------------------}

e----------------------------------------------------------}
b----------------------------------------------------------}
g----------------------------------------------------------}
d-----------------5-5-5-5-5-5-5-5-5-5-5-5-5-5-5-5----------}
a--5b-------5b----x-x-x-x-x-x-x-x-x-x-x-x-x-x-x-x----------}
e--3b-------3b----3-3-3-3-3-3-3-3-3-3-3-3-3-3-3-3----------}

e-----------------------------------------------------------
b-----------------------------------------------------------
g---------------7-7-7-7----------------7-7-7-7--------------
d-6/5-5--6/5-5--x-x-x-x--6/5-5--6/5-5--x-x-x-x--6/5-5--6/5-5
a-x/x-x--x/x-x--5-5-5-5--x/x-x--x/x-x--5-5-5-5--x/x-x--x/x-x
e-4/3-3--3/3-3-----------4/3-3--4/3-3-----------4/3-3--4/3-3
Up & DOWN STROkES,,,,,,,,,,,,,,,,,,,,,,,,,,,,,,,,,,,,,,,,,,,
e-------------------------------------------------------}
b-------------------------------------------------------}
g--7-7-7-7-----------------4--4-------------------------}2X
d--x-x-x-x--6/5-5--6/5-5---x--x-------------------------}
a--5-5-5-5--x/x-x--x/x-x---2--2-------------------------}
e-----------4/3-3--4/3-3--------------------------------}
,,,,,,,,,,,,,,,,,,,,,,,,,,,,,,,,,,,,,,,,,,,,,,,,,,,,,,,,

verse
e----------------------------------------------------------}
b----------------------------------------------------------}
g----------------------------------------------------------}
d---5-5--4-4--2-2--4-4--5-5--4-4--2-2--4-4-----------------}
a----------------------------------------------------------}
e----------------------------------------------------------}

e----------------------------------------------------------}
b----------------------------------------------------------}
g----------------------------------------------------------}
d--5-5--4-4--2-2--4-4--------------------------------------}
a--5-5--4-4--2-2--4-4--------------------------------------}
e--3-3--2-2--0-0--2-2--------------------------------------}
PAlM MUTED...........

Chorus x2
e----------------------------------------------------------}
b----------------------------------------------------------}
g--9999999---8888888---6666666---8888888-------------------}
d--9999999---8888888---6666666---8888888-------------------}
a--7777777---6666666---4444444---6666666-------------------}
e----------------------------------------------------------}

e-----------------------------------------------------------
b-----------------------------------------------------------
g---------------7-7-7-7----------------7-7-7-7--------------
d-6/5-5--6/5-5--x-x-x-x--6/5-5--6/5-5--x-x-x-x--6/5-5--6/5-5
a-x/x-x--x/x-x--5-5-5-5--x/x-x--x/x-x--5-5-5-5--x/x-x--x/x-x
e-4/3-3--4/3-3-----------4/3-3--4/3-3-----------4/3-3--4/3-3

e----------------------------------------------------------}
b----------------------------------------------------------}
g--7-7-7-7----------------4--4-----------------------------}
d--x-x-x-x--6/5-5--6/5-5--x--x-----------------------------}
a--5-5-5-5--x/x-x--x/x-x--2--2-----------------------------}
e-----------4/3-3--4/3-3-----------------------------------}

Verse
e----------------------------------------------------------}
b----------------------------------------------------------}
g----------------------------------------------------------}
d---5-5--4-4--2-2--4-4--5-5--4-4--2-2--4-4-----------------}
a----------------------------------------------------------}
e----------------------------------------------------------}

e----------------------------------------------------------}
b----------------------------------------------------------}
g----------------------------------------------------------}
d--5-5--4-4--2-2--4-4--------------------------------------}
a--5-5--4-4--2-2--4-4--------------------------------------}
e--3-3--2-2--0-0--2-2--------------------------------------}
PALM MUTED...........

Chorus x2
e----------------------------------------------------------}
b----------------------------------------------------------}
g--9999999---8888888---6666666---8888888-------------------}
d--9999999---8888888---6666666---8888888-------------------}
a--7777777---6666666---4444444---6666666-------------------}
e----------------------------------------------------------}

RIFF
e----------------------------------------------------------}
b----------------------------------------------------------}
g-------------------------7-7-7-7---7-7-7-7--7-7-7-7-------}
d-5-----------------------7-7-7-7---7-7-7-7--7-7-7-7-------}
a-5-(ring)--Pickslide-----5-5-5-5---5-5-5-5--5-5-5-5-------}
e-3--------------------------------------------------------}
UP & DOWN STRUMING

e---------------------------------}
b---------------------------------}
g---------------7-7-7-7-----------}x3
d-6/5-5--6/5-5--x-x-x-x-----------}
a-x/x-x--x/x-x--5-5-5-5-----------}
e-4/3-3--4/3-3--------------------}
UP & DOWN STRUMING

e----------------------------------------------------------}
b------------------------R---------------------------------}
g-444-444-4444-444-444-4-E------444-444-4444-444-444-------}
d-xxx-xxx-xxxx-xxx-xxx-x-S(2x)--xxx-xxx-xxxx-xxx-xxx-------}
a-222-222-2222-222-222-2-T------222-222-2222-222-222-------}
e----------------------------------------------------------}

Chorus x2
e----------------------------------------------------------}
b----------------------------------------------------------}
g--9999999---8888888---6666666---8888888-------------------}
d--9999999---8888888---6666666---8888888-------------------}
a--7777777---6666666---4444444---6666666-------------------}
e----------------------------------------------------------}

END ON
e---------}
b---------}
g--9------}
d--9------}
a--7------}
e---------}


Текст, аккорды и табулатура для песни "I Feel So", исполняет "Boxcar Racer".
Используемые в песне аккорды можно найти в разделе Как брать аккорды. Аккорды для шестиструнной гитары. Другие песни можно найти на нашем сайте, воспользовавшись алфавитным указателем вверху страницы.


Слушать онлайн I Feel So


Box Car RacerI Feel So на Яндекс.Музыке


 
Ошибка в тексте? Выделите ошибку и нажмите Ctrl+Enter