Title : I Feel So
Artist : Boxcar Racer
Tabbed by : Graeme Lyon
Tuning : Standard - EADGBe

KEY :
b  = bend
PM = plam muted
x  = string totally muted 


Piano Intro then:

e|-------------------------------------------|
B|-------------------------------------------| Try to match
G|-------------------------------------------| all the bends
D|-------------------------------------------| to Toms
A|-------------------------------------------| Delonges
E|--3b---bend-this-back-and-forth-for-a-bit--|


e|--5-5-5-5-5-5-5-5-5-5-5-5-5-5-------------------------|
B|--8-8-8-8-8-8-8-8-8-8-8-8-8-8-------------------------|
G|--7-7-7-7-7-7-7-7-7-7-7-7-7-7-------------------------|
D|--5-5-5-5-5-5-5-5-5-5-5-5-5-5-------------------------|
A|------------------------------------------------------|
E|--------------------------------3b--bend-like-before--|

MAIN RIFF:
e|-------------------------------------------|
B|-------------------------------------------|
G|----------------------7-7-7-7--------------|
D|----5--5-5---5--5-5---7-7-7-7--------------| X3
A|----5--5-5---5--5-5---5-5-5-5--------------|
E|--0h3--3-3-0h3--3-3------------------------|


e|-------------------------------------------|
B|-------------------------------------------|
G|----------------------4-4-4-4--------------|
D|----5--5-5---5--5-5---4-4-4-4--------------|
A|----5--5-5---5--5-5---2-2-2-2--------------|
E|--0h3--3-3-0h3--3-3------------------------|

PIANO BIT:
e|----------------------------------------|
B|----------------------------------------| This piano
G|----4-----------------------------------| bit keeps
D|--5----4-4---2-2--4-4-------------------| playing untill
A|----------------------------------------| the chorus
E|----------------------------------------|

PALM MUTED BIT:
e|------------------------------|
B|------------------------------|
G|------------1-1---------------|
D|--5-5--4-4--2-2--4-4----------|
A|--5-5--4-4--2-2--4-4----------|
E|--3-3--2-2--0-0--2-2----------|
  PM............................

CHORUS:
e|--0-0-0-0-0--------------------------------------|
B|--0-0-0-0-0--------------------------------------|
G|--1-1-1-1-1---8-8-8-8-8---6-6-6-6-6---8-8-8-8-8--|
D|--2-2-2-2-2---8-8-8-8-8---6-6-6-6-6---8-8-8-8-8--|
A|--2-2-2-2-2---6-6-6-6-6---4-4-4-4-4---6-6-6-6-6--|
E|--0-0-0-0-0--------------------------------------|

MAIN RIFF
PIANO BIT
PALM MUTED BIT
CHORUS

e|-------------------------------------|
B|-------------------------------------|
G|-------------------------------------|
D|--5----------------------------------|
A|--5---let-ring-----------------------|
E|--3----------------------------------|


e|----------------------------------------| There is
B|----------------------------------------| Feedback
G|----------------------7-7-7-7-----------| here
D|----5--5-5---5--5-5---7-7-7-7-----------|    X4
A|----5--5-5---5--5-5---5-5-5-5-----------|
E|--0h3--3-3-0h3--3-3---------------------|
  PM...................


e|---------------------------------|
B|---------------------------------|
G|--4-4-4-4-4-4-4-4-4-4------------|
D|--x-x-x-x-x-x-x-x-x-x---rest-----| X2
A|--2-2-2-2-2-2-2-2-2-2------------|
E|---------------------------------|


e|------------------------------------------| Fret the 2
B|------------------------------------------| with your
G|--4-4-4-4-4-4-4-4-4-4-4-4-4-4-4-4-4-------| first finger
D|--x-x-x-x-x-x-x-x-x-x-x-x-x-x-x-x-x--rest-| and mute the x
A|--2-2-2-2-2-2-2-2-2-2-2-2-2-2-2-2-2-------| with it too.
E|------------------------------------------|

CHORUS X2

END ON :
e|-------------|
B|-------------|
G|---1---------|
D|---2--let----|
A|---2--ring---|
E|---0---------|
                                               
I got this TAB by watching their video.
I think it's pretty exact
This is the first time I've tabbed
out a whole song so
E-Mail me comments or corrections at
[email protected]


Lyrics:

Sometimes
I wish I was brave
I wish I was stronger
I wish I could feel no pain
I wish I was young 
I wish I would try 
I wish I was honest
I wish I was you not I

'Cos
I feel so mad
I feel so angry
I feel so callous
So lost, confused, just mad
I feel so cheap
So used, unfaithful
Let's start over
Let's start over

Sometimes
I wish I was smart
I wish I made cures for 
How people are
I wish I had power
I wish I could leave
I wish I could change the world 
For you and me

'Cos
I feel so mad
I feel so angry
I feel so callous
So lost, confused, just mad
I feel so cheap
So used, unfaithful
Let's start over
Let's start over

'Cos
I feel so mad
I feel so angry
I feel so callous
So lost, confused, just mad
I feel so cheap
So used, unfaithful
Let's start over
Let's start over

I feel so mad
I feel so angry
I feel so callous
So lost, confused, just mad
I feel so cheap
So used, unfaithful
Let's start over
Let's start over


Текст, аккорды и табулатура для песни "I Feel So", исполняет "Boxcar Racer".
Используемые в песне аккорды можно найти в разделе Как брать аккорды. Аккорды для шестиструнной гитары. Другие песни можно найти на нашем сайте, воспользовавшись алфавитным указателем вверху страницы.


Слушать онлайн I Feel So


Box Car RacerI Feel So на Яндекс.Музыке


 
Ошибка в тексте? Выделите ошибку и нажмите Ctrl+Enter